Oops, an error
Loading. Please wait.

Memories Of Oiur Dreams Tab

8,855 views 21 this week
3 commentsread comments
1 2 3 4 5
worth learning
x 3
add to favorites
launch autoscroll
font size
0
reset
how to read this tab
guitar tuner
Autoscroll
slow
fast
+/-
esc
set tempo
stop
Help us to improve Ultimate-Guitar.com Take our survey!
×
Memories of our dreams
ADVENT CALL
timoyski@putanginamo.com    or   apathy36@hotmail.com


INTRO
E-------------------------------------------------------------------------------
B-------------------------------------------------------------------------------
G--------------------------------5-5--7-7--8-8----------------------------------
D---5-5--7-7--8-8----------------5-5--7-7--8-8--5--repeat 2x--5-5--7-7--8-8-----
A---5-5--7-7--8-8--5--repeat 2x--3-3--5-5--6-6----------------5-5--7-7--8-8--5--repeat 2x
E---3-3--5-5--6-6---------------------------------------------3-3--5-5--6-6-----

E------------------------------------------------------------------
B------------------------------------------------------------------
G---7-5-7---5-7--5-7-7---------------------------------------------
D---7-5-7---5-7--5-7-7--8-8-7-7-5-5-7-7-8-8-7-7-5------------------
A---5-3-5---3-5--3-5-5--8-8-7-7-5-5-7-7-8-8-7-7-5------------------
E-----------------------6-6-5-5-3-3-5-5-6-6-5-5-3------------------


Chords fo the verse
(strum it in a slow way, you can pluck any string and made any rythm while playing)

  Dm    G    Cm   Fm    Cm   G   Dm

E--5----3----3----8-----3----3----5-------------------------------
B--6----3----4----9-----4----3----6-------------------------------
G--7----4----5----10----5----4----7-------------------------------
D--7----5----5----10----5----5----7-------------------------------
A--5----5----3----8-----3----5----5-------------------------------
E--5----3----3----8-----3----3----5-------------------------------

RIFF 1

E------------------------------------------------------------------
B------------------------------------------------------------------
G------------------------------------------------------------------
D---5-5-5-7-7-7-8-8-8-7-7-7-5--------------------------------------
A---5-5-5-7-7-7-8-8-8-7-7-7-5--------------------------------------
E---3-3-3-5-5-5-6-6-6-5-5-5-3--------------------------------------

RIFF 2 (fast tempo)

E------------------------------------------------------------------
B------------------------------------------------------------------
G------------------------------------------------------------------
D---8-7-5-5-5-5----------------------------------------------------
A---8-7-5-5-5-5----------------------------------------------------
E---6-5-3-3-3-3----------------------------------------------------


Verse 1:
(slow tempo)

                  Dm                G
malilimutan ko pa ba aking mahal
                     Cm               Fm
ang maligayang araw nating nagdaan
                     Cm
habang ako'y nag- iisang nalulumbay
G          Dm          (insert RIFF 1)
    ang alaala ay ikaw

Verse 2:

                  Dm                   G
ang ating suyuang walang kasing tamis
                  Cm               Fm
sa gunita pala ay ubod ng pait
                         Cm
ang nagtampong pag- ibig mo'y di ko batid
G                Dm            (RIFF 1)
    kung minsan pang magbabalik

(REPEAT INTRO)(fast Tempo)

Verse 3:
(slow tempo)

                  Dm                   G
kaya wala nang nalabi sa dibdib ko
                  Cm               Fm
kundi ang alaala ng pagibig mo
		     Cm
asahan mong hindi ka na mawawala
G                Dm            (insert RIFF 1)
         dito sa aking gunita


LEAD (this lead sounds like the last two lines of each verse)

E--5-6-8-10-8-6-10-5-3---1-3-5---1-3-5-3-1-0-----------------------
B----------------------5-------5-------------3-(insert RIFF 1)-----
G------------------------------------------------------------------
D------------------------------------------------------------------
A------------------------------------------------------------------
E------------------------------------------------------------------
* you can already play the RIFF 1 even without plucking 
  the last number of the lead (third fret of the second string)

Verse 4:
(slow tempo)

                     Dm                   G
only yesterday you said we'll never part
                     Cm                   Fm
but now you leave me with a broken heart
				 Cm
i want you please come back come back to me my love
G		      Dm                   (RIFF 1)
      bring back the memories of our dreams

REPEAT INTRO

(play the verse 1 now with a faster beat,then play the RIFF 2 (2x) after it)
Verse 1:
(fast tempo)

                  Dm                G
malilimutan ko pa ba aking mahal
                     Cm               Fm
ang maligayang araw nating nagdaan
                     Cm
habang ako'y nag- iisang nalulumbay
G          Dm          (insert RIFF 2 2x)
    ang alaala ay ikaw

(play the verse 2 now with a faster beat,then play the RIFF 2 (2x) after it)
Verse 2:
(fast tempo)
                  Dm                   G
ang ating suyuang walang kasing tamis
                  Cm               Fm
sa gunita pala ay ubod ng pait
                         Cm
ang nagtampong pag- ibig mo'y di ko batid
G                Dm            (insert RIFF 2 2x)
    kung minsan pang magbabalik

Final Verse
(play it in a slower tempo)

Fm                           Cm
    ang nagtampong pag- ibig mo'y di ko bati
G               Dm             (insert RIFF 1)
    kung minsan pang magbabalik


that's it! the song is perfect for jammings and other fun occations, i'm only 17 but i'm
sure that's 100% correct!
Suggest correction
What's this?
You can suggest a correction to this tab. Community and Mods will review your correction and vote to approve or reject it.
comments
We did not receive enough feedback on this tab! Please rate:
print report bad tab
1 2 3 4 5
3 comments total.
0 reply
edward61892 11 wrote on November 5 2008, 09:12 am

mejo may mali.

0 reply
vekou 252 wrote on November 21 2014, 12:55 am

Lack of accuracy. Clearly wrong. It just doesn't sound right. It seems that some of the chords are wrong. The intro was right though. .

0 reply
mysuplado 11 wrote on November 23 2015, 05:00 am

Kaya nga. Eto po yung alam kong tama ng chords.

D Cm Gm Cm Gm D G-A-A#-A-Gpause

Pag mabilis napo yung tempo baligtad lang yung dulo A#-A-G 2x

guest
You may want to rate the tab now too:
select rating
Please do not post tabs as comments. Select "correction" instead!