Oops, an error
Loading. Please wait.

Crash 20 Tab

34 views 1 this week
1 commentread comment
1 2 3 4 5
2 more votes to show rating
add to favorites
launch autoscroll
font size
0
reset
how to read this tab
guitar tuner
Autoscroll
slow
fast
+/-
esc
set tempo
stop
Help us to improve Ultimate-Guitar.com Take our survey!
×
Author
Difficulty
Tuning
intermediate
D A D G B E
About this tab version
DROP D. COMPLETELY ACCURATE. The song's rhythmic chords are merged together with the leads. Was this info helpful? Yes No
DROP D TUNING.
Play close attention to the chords near the middle of each bar.

*****************************************************************************
[INTRO]  
Beat's Build-Up. No Chords.

*****************************************************************************

[VERSE(s)] 

e|---------------------------------------------------------------------------|
B|---------------------------------------------------------------------------|
G|-8-----------8-----------------------------7----------8--------------------|
D|-10----------8-----------13-13-13-12-------8----------10-------------------|
A|-6--hold-----6--hold-----13-13-13-13-------5-hold-----6-hold---------------|
D|-6-----------6-----------10-10-10-10-------5----------6--------------------|

2nd Part..
e|---------------------------------------------------------------------------|
B|---------------------------------------------------------------------------|
G|-8-----------10----------12-12-12-12-------7----------8--------------------|
D|-10----------12----------13-13-13-12-------8----------10-------------------|
A|-6-hold------8-hold------10-13-13-10-------5-hold-----6-hold---------------|
D|-6-----------8-----------10-10-10-10-------5----------6--------------------|

                                     x2 


******************************************************************************

[CHORUS(s)] / [DANCE LEAD(s)]

Few Vocals. 
Same Exact Chords As Verses, But More Strumming. 
e|---------------------------------------------------------------------------|
B|---------------------------------------------------------------------------|
G|-8--8--8--8-----8-8-8-8-----------------------7--------------8-------------|
D|-10-10-10-10----8-8-8-8------13-13-13-12------8--------------10------------|
A|-6--6--6--6-----6-6-6-6------13-13-13-13------5-hold---------6-hold--------|
D|-6--6--6--6-----6-6-6-6------10-10-10-10------5--------------6-------------|

e|---------------------------------------------------------------------------|
B|---------------------------------------------------------------------------|
G|-8--8--8--8----10-10-10-10----12-12-12-12------7--------------8------------|
D|-10-10-10-10---12-12-12-12----13-13-13-12------8--------------10-----------|
A|-6--6--6--6----8--8--8--8-----10-13-13-10------5-hold---------6-hold-------|
D|-6--6--6--6----8--8--8--8-----10-10-10-10------5--------------6------------|
 
                                

********************************************************************************
Suggest correction
Give kudos to tab author, rate the tab!
1 2 3 4 5
comments
print report bad tab
1 comment total.
0 reply
zebrastrings 10 Oct 27, 2016 06:29 AM

perfect!! thanks for the upload

guest
You may want to rate the tab now too:
select rating
Wanna post a correction for this tab? Suggest correction