Oops, an error
Loading. Please wait.

Daddy Why Did You Eat My Fries Bass Tab

14,816 views 36 this week
1 commentread comment
1 2 3 4 5
x 10
add to favorites
launch autoscroll
font size
0
reset
guitar tuner
Autoscroll
slow
fast
+/-
esc
set tempo
stop
Help us to improve Ultimate-Guitar.com Take our survey!
×
http://www.youtube.com/watch?v=d17opCgsUrE&
This not %100 correct ;A; this is my first tabbing for a song

E|--3-3-----------|-3-3-3-3--------|-----3-3-3------|--2-2-----------|
A|------3-3--5-5--|----------3-3---|-5-5------------|------7-7--3-3--|
D|----------------|----------------|----------------|----------------|
G|----------------|----------------|----------------|----------------|


E|-2-2------------|----------------|----------------|----------------|
A|-----7-7--3-----|----------------|----------------|----------------|
D|----------------|----------------|----------------|----------------|
G|----------------|----------------|----------------|----------------|
Suggest correction
comments
print report bad tab
1 comment total.
+3 reply
Whiskey75 10 May 25, 2014 11:08 PM

G|----------------|----------------|----------------|----------------|
D|----------------|----------------|----------------|----------------|
A|------3-3--5-5--|-3-3-3-3--------|-5-5------------|------7-7--3-3--|
E|--3-3-----------|----------3-3---|-----3-3-3------|--2-2-----------|

G|------------------|----------------|----------------|----------------|
D|------------------|----------------|----------------|----------------|
A|-----7-7--3-------|----------------|----------------|----------------|
E|-2-2--------------|----------------|----------------|----------------|

You had it tabbed upside down

guest
You may want to rate the tab now too:
select rating
Wanna post a correction for this tab? Suggest correction