Oops, an error
Loading. Please wait.

Soul Burner Tab

version 1
version 1

Whole song

Interactive

by Aeon
1,974 views 1 this week
no commentswrite comment
1 2 3 4 5
1 last vote to show rating
add to favorites
×
Save as Personal and add changes to this tab that will be seen only by you. Learn more ›
×
You can save this tab as Personal to edit and correct it or add notes. All changes will be seen only by you. Learn more »
save as personal
new!
launch autoscroll
font size
0
reset
how to read this tab
guitar tuner
Autoscroll
slow
fast
+/-
esc
set tempo
stop
Author
Difficulty
Tabbers playing skills
advanced
intermediate ++
Tuning: B-E-A-D-G-B-E

[Intro]
E|------------------------------|-----------------|
B|------------------------------|-----------------|
G|------------------------------|-----------------|
D|------------------------------|-----------------|
A|------------------------------|-----5---4-------|
E|-4--3-------------------4--3--|-----3---2-------|
B|-2--1--0-0-55554444-0-1-2--1--|-0-1---0---3-2-1-|
|        . . ........ . .       | . .   .   . . . |

E|------------------------------|-----------------|
B|------------------------------|-----------------|
G|------------------------------|-----------------|
D|------------------------------|-----------------|
A|------------------------------|-----------------|
E|-4--3-------------------4--3--|-----------------|
B|-2--1--0-0-55554444-0-1-2--1--|-----------------|
         . . ........ . .

[Part 1] (x2)
E|----------------------------------------------|------------------------|
B|----------------------------------------------|------------------------|
G|----------------------------------------------|------------------------|
D|----------------------------------------------|------------------------|
A|----------------------------------5---4-------|------------------------|
E|-4--3-------------------4--3------3---2-------|-4--3-------------------|
B|-2--1--0-0-55554444-0-1-2--1--0-1---0---3-2-1-|-2--1--0-0-55554444-0-1-|
         . . ........ . .       . .   .   . . .         . . ........ . .

E|-------------------------------|
B|-------------------------------|
G|-------------------------------|
D|-------------------------------|
A|-----------5---4-------3-------|
E|-4--3------3---2-------1-------|
B|-2--1--0-1---0---3-2-1---2-1-0-|
         . .   .   . . .   . . .

E|---------------------------------------|
B|---------------------------------------|
G|---------------------------------------|
D|---------------------------------------|
A|-----------5---4-------4---3-----------|
E|-4--3------3---2-------2---1-----------|
B|-2--1--0-1---0---0-0-1---0---2-1-0-1-2-|
         . .   .   . . .   .   . . . . .

[Part 2] (x2)
E|----------------------------------------------|
B|----------------------------------------------|
G|----------------------------------------------|
D|----------------------------------------------|
A|-3-----------4-----------3-----------3---4----|
E|-1-----------2-----------1-----------1---2----|
B|---2-1-0-1-2---0-2-1-0-1---2-1-0-1-2-1-0-2-0--|
     . . . . .   . . . . .   . . . . .   .   .

                                                      [Outro 1]
E|-------------------------|-------------------------|---------|
B|-------------------------|-------------------------|---------|
G|-------------------------|-------------------------|---------|
D|-------------------------|-------------------------|---------|
A|-3-----------4-----------|-3-----------3---4---5---|-4---3---|
E|-1-----------2-----------|-1-----------1---2---3---|-2---1---|
B|---2-1-0-1-2---0-2-1-0-1-|---2-1-0-1-2-1-0-2-0-3-0-|-2-0-1-0-|
     . . . . .   . . . . .     . . . . .   .   .   .     .   .

[Part 3] (x2)
E|-------------------------------------------------------------------------|
B|--------------------------------14----------------------18---------------|
G|--------------------------14-15----15-14----------18-19----19-18---------| (x3)
D|--------------------14-15-------------------18-19----------------15~~~~--|
A|----------^------16----------------------20------------------------------|
E|----------1~~~~----------------------------------------------------------|
B|-11110000----------------------------------------------------------------|
   ........

E|-----------------------------------|
B|-----------------------------------|
G|-----------------------------------|
D|-----------------------------------|
A|----------^----------5-----7-------|
E|----------1~~~-------3-----5-------|
B|-11110000------0-1-2---0-1---4-3-4-|
   ........      . . . . . . . . . .

[Part 4] (x4)
E|-----------------------------------------|
B|-----------------------------------------|
G|-----------------------------------------|
D|-----------------------------------------|
A|---------5-------------------------------|
E|-5-4-5-6-3-6-----------1~~---------5--4--|
B|-3-2-3-4---4-0-1-1--0------1-2-1-0-3--2--|
   . . . . . . . . .  .      . . . . .  .

[Part 1] (x2)
E|----------------------------------------------|------------------------|
B|----------------------------------------------|------------------------|
G|----------------------------------------------|------------------------|
D|----------------------------------------------|------------------------|
A|----------------------------------5---4-------|------------------------|
E|-4--3-------------------4--3------3---2-------|-4--3-------------------|
B|-2--1--0-0-55554444-0-1-2--1--0-1---0---3-2-1-|-2--1--0-0-55554444-0-1-|
         . . ........ . .       . .   .   . . .         . . ........ . .

E|-------------------------------|
B|-------------------------------|
G|-------------------------------|
D|-------------------------------|
A|-----------5---4-------3-------|
E|-4--3------3---2-------1-------|
B|-2--1--0-1---0---3-2-1---2-1-0-|
         . .   .   . . .   . . .

E|---------------------------------------|
B|---------------------------------------|
G|---------------------------------------|
D|---------------------------------------|
A|-----------5---4-------4---3-----------|
E|-4--3------3---2-------2---1-----------|
B|-2--1--0-1---0---0-0-1---0---2-1-0-1-2-|
         . .   .   . . .   .   . . . . .

[Part 2] (x2)
E|----------------------------------------------|
B|----------------------------------------------|
G|----------------------------------------------|
D|----------------------------------------------|
A|-3-----------4-----------3-----------3---4----|
E|-1-----------2-----------1-----------1---2----|
B|---2-1-0-1-2---0-2-1-0-1---2-1-0-1-2-1-0-2-0--|
     . . . . .   . . . . .   . . . . .   .   .

                                                      [Outro 1]
E|-------------------------|-------------------------|---------|
B|-------------------------|-------------------------|---------|
G|-------------------------|-------------------------|---------|
D|-------------------------|-------------------------|---------|
A|-3-----------4-----------|-3-----------3---4---5---|-4---3---|
E|-1-----------2-----------|-1-----------1---2---3---|-2---1---|
B|---2-1-0-1-2---0-2-1-0-1-|---2-1-0-1-2-1-0-2-0-3-0-|-2-0-1-0-|
     . . . . .   . . . . .     . . . . .   .   .   .     .   .

[Part 3] (x2)
E|-------------------------------------------------------------------------|
B|--------------------------------14----------------------18---------------|
G|--------------------------14-15----15-14----------18-19----19-18---------| (x3)
D|--------------------14-15-------------------18-19----------------15~~~~--|
A|----------^------16----------------------20------------------------------|
E|----------1~~~~----------------------------------------------------------|
B|-11110000----------------------------------------------------------------|
   ........

E|-----------------------------------|
B|-----------------------------------|
G|-----------------------------------|
D|-----------------------------------|
A|----------^----------5-----7-------|
E|----------1~~~-------3-----5-------|
B|-11110000------0-1-2---0-1---4-3-4-|
   ........      . . . . . . . . . .

[Part 4] (x4)
E|-----------------------------------------|
B|-----------------------------------------|
G|-----------------------------------------|
D|-----------------------------------------|
A|---------5-------------------------------|
E|-5-4-5-6-3-6-----------1~~---------5--4--|
B|-3-2-3-4---4-0-1-1--0------1-2-1-0-3--2--|
   . . . . . . . . .  .      . . . . .  .

[Part 5]
E|-----------------------------------|----------------------------------------|
B|-----------------------------------|----------------------------------------|
G|-----------------------------------|----------------------------------------|
D|-----------------------------------|----------------------------------------|
A|-----------------------------------|----------------------------------------|
E|-----------------------------------|----------------------------------------|
B|-0011332233331--00112211332233330--|-0011332233331--001122112211332233330---|
   .............  .................    .............  .....................

                                                      [Outro 2]
E|-----------------------------------|-------------|----------------|
B|-----------------------------------|-------------|----------------|
G|-----------------------------------|-------------|----------------|
D|-----------------------------------|-------------|----------------|
A|-----------------------------------|-------------|-8---------3--4-|
E|-----------------------------------|-------------|-6--5------4--5-|
B|-00112211332233330--0011332233331--|-001122112211|-6--3--0000-----|
   .................  .............    ............        ....

[Part 6]
E|----------------------------------------------|
B|----------------------------------------------|
G|----------------------------------------------|
D|----------------------------------------------|
A|-----------------------------8---------3--4---|
E|-----------------------------6--5------4--5---|
B|-0-1-2-0-1-2-1-0-3-0-1-2-1-0-6--3--0000-------|
   . . . . . . . . . . . . . .       ....

E|--------------------------------------------|
B|--------------------------------------------|
G|--------------------------------------------|
D|--------------------------------------------|
A|------------------------------8------3--4---|
E|---------------------------6--5------4--5---|
B|-00002--0--1--333300002222-6--3--0000-------|
   .....  .  .  ............       ....

E|----------------------------------------------|
B|----------------------------------------------|
G|----------------------------------------------|
D|----------------------------------------------|
A|-----------------------------8---------3--4---|
E|-----------------------------6--5------4--5---|
B|-0-1-2-0-1-2-1-0-3-0-1-2-1-0-6--3--0000-------|
   . . . . . . . . . . . . . .       ....

  (x1)       (2x)
E|------|-----------------------|
B|------|-----------------------|
G|------|-----------------------|
D|------|-----------------------|
A|------|-----------------------|
E|------|-----------------------|
B|-0000-|-2--0--1--333300002222-|
   ....   .  .  .  ............

[Part 7] 
(solo section)
(x3)
E|-------------------------------------------------|
B|-------------------------------------------------|
G|-------------------------------------------------|
D|-------------------------------------------------|
A|-------------------------------------------------|
E|-------------------------------------------------|
B|-2-0-1-2-1-0-1-0-1-2-1-0-2-0-1-2-1-0-3-0-1-2-1-0-|
   . . . . . . . . . . . . . . . . . . . . . . . .

[Outro 3] 
(quick picking)
E|---------------------------------------|--------------------------------------|
B|---------------------------------------|--------------------------------------|
G|---------------------------------------|--------------------------------------|
D|---------------------------------------|--------------------------------------|
A|-------------7-8-9-10-11-13-12-11-10-9-|-----------------------------7-8-9-10-|
E|-7-8-9-10-11---------------------------|-13-12-11-10-9-8-7-8-9-10-11----------|
B|---------------------------------------|--------------------------------------|
   .....................................   ....................................

E|-----------------------------|
B|-----------------------------|
G|-----------------------------|
D|-----------------------------|
A|-------------8---------3--4--|
E|-------------6--5------4--5--|
B|-3-0-1-2-1-0-6--3--0000------|
   . . . . . .       ....

[Part 6]
E|----------------------------------------------|
B|----------------------------------------------|
G|----------------------------------------------|
D|----------------------------------------------|
A|-----------------------------8---------3--4---|
E|-----------------------------6--5------4--5---|
B|-0-1-2-0-1-2-1-0-3-0-1-2-1-0-6--3--0000-------|
   . . . . . . . . . . . . . .       ....

E|--------------------------------------------|
B|--------------------------------------------|
G|--------------------------------------------|
D|--------------------------------------------|
A|------------------------------8------3--4---|
E|---------------------------6--5------4--5---|
B|-00002--0--1--333300002222-6--3--0000-------|
   .....  .  .  ............       ....

E|----------------------------------------------|
B|----------------------------------------------|
G|----------------------------------------------|
D|----------------------------------------------|
A|-----------------------------8---------3--4---|
E|-----------------------------6--5------4--5---|
B|-0-1-2-0-1-2-1-0-3-0-1-2-1-0-6--3--0000-------|
   . . . . . . . . . . . . . .       ....

  (x1)       (2x)
E|------|-----------------------|
B|------|-----------------------|
G|------|-----------------------|
D|------|-----------------------|
A|------|-----------------------|
E|------|-----------------------|
B|-0000-|-2--0--1--333300002222-|
   ....   .  .  .  ............

[Part 5]
E|-----------------------------------|----------------------------------------|
B|-----------------------------------|----------------------------------------|
G|-----------------------------------|----------------------------------------|
D|-----------------------------------|----------------------------------------|
A|-----------------------------------|----------------------------------------|
E|-----------------------------------|----------------------------------------|
B|-0011332233331--00112211332233330--|-0011332233331--001122112211332233330---|
   .............  .................    .............  .....................

                                                      [Outro 2]
E|-----------------------------------|-------------|----------------|
B|-----------------------------------|-------------|----------------|
G|-----------------------------------|-------------|----------------|
D|-----------------------------------|-------------|----------------|
A|-----------------------------------|-------------|-8---------3--4-|
E|-----------------------------------|-------------|-6--5------4--5-|
B|-00112211332233330--0011332233331--|-001122112211|-6--3--0000-----|
   .................  .............    ............        ....

[Outro 4]
E|-------------------------|---------------------|
B|-------------------------|---------------------|
G|-------------------------|---------------------|
D|-------------------------|---------------------|
A|-3-----------4-----------|-3-----------3---4---|
E|-1-----------2-----------|-1-----------1---2---|
B|---2-1-0-1-2---0-2-1-0-1-|---2-1-0-1-2-1-0-2-0-|
|    . . . . .   . . . . . |   . . . . .   .   . |

E|-------------------------|---------------------|
B|-------------------------|---------------------|
G|-------------------------|---------------------|
D|-------------------------|---------------------|
A|-3-----------4-----------|-3-----------3---4---|
E|-1-----------2-----------|-1-----------1---2---|
B|-------------------------|-------------1-0-2-0-|
                                           .   .

[Part 2] (x2)
E|----------------------------------------------|
B|----------------------------------------------|
G|----------------------------------------------|
D|----------------------------------------------|
A|-3-----------4-----------3-----------3---4----|
E|-1-----------2-----------1-----------1---2----|
B|---2-1-0-1-2---0-2-1-0-1---2-1-0-1-2-1-0-2-0--|
     . . . . .   . . . . .   . . . . .   .   .

                                                      [Outro 1]
E|-------------------------|-------------------------|---------|
B|-------------------------|-------------------------|---------|
G|-------------------------|-------------------------|---------|
D|-------------------------|-------------------------|---------|
A|-3-----------4-----------|-3-----------3---4---5---|-4---3---|
E|-1-----------2-----------|-1-----------1---2---3---|-2---1---|
B|---2-1-0-1-2---0-2-1-0-1-|---2-1-0-1-2-1-0-2-0-3-0-|-2-0-1-0-|
     . . . . .   . . . . .     . . . . .   .   .   .     .   . 

[Part 4] (x2)
E|-----------------------------------------|
B|-----------------------------------------|
G|-----------------------------------------|
D|-----------------------------------------|
A|---------5-------------------------------|
E|-5-4-5-6-3-6-----------1~~---------5--4--|
B|-3-2-3-4---4-0-1-1--0------1-2-1-0-3--2--|
   . . . . . . . . .  .      . . . . .  .

[Part 1] (x2)
E|----------------------------------------------|------------------------|
B|----------------------------------------------|------------------------|
G|----------------------------------------------|------------------------|
D|----------------------------------------------|------------------------|
A|----------------------------------5---4-------|------------------------|
E|-4--3-------------------4--3------3---2-------|-4--3-------------------|
B|-2--1--0-0-55554444-0-1-2--1--0-1---0---3-2-1-|-2--1--0-0-55554444-0-1-|
         . . ........ . .       . .   .   . . .         . . ........ . .

E|-------------------------------|
B|-------------------------------|
G|-------------------------------|
D|-------------------------------|
A|-----------5---4-------3-------|
E|-4--3------3---2-------1-------|
B|-2--1--0-1---0---3-2-1---2-1-0-|
         . .   .   . . .   . . .

E|---------------------------------------|
B|---------------------------------------|
G|---------------------------------------|
D|---------------------------------------|
A|-----------5---4-------4---3-----------|
E|-4--3------3---2-------2---1-----------|
B|-2--1--0-1---0---0-0-1---0---2-1-0-1-2-|
         . .   .   . . .   .   . . . . .

************************************

| .  Staccato
| ~  Vibrato
  

************************************
Suggest correction
Give kudos to tab author, rate the tab!
1 2 3 4 5
comments
print report bad tab
guest
You may want to rate the tab now too:
select rating
Wanna post a correction for this tab? Suggest correction