Oops, an error
Loading. Please wait.

Keep You Here chords

by AER
100 views 1 this week
no commentswrite comment
1 2 3 4 5
3 more votes to show rating
add to favorites
×
Save as Personal and add changes to this tab that will be seen only by you. Learn more ›
×
You can save this tab as Personal to edit and correct it or add notes. All changes will be seen only by you. Learn more »
launch autoscroll
font size
0
reset
transpose
0
reset
display chords
guitar tuner
edit
Autoscroll
slow
fast
+/-
esc
set tempo
stop
Author
Strumming
There is no strumming pattern for this song yet. and get +5 IQ
(I like to play it this way with palm muting thrown in during the power chords 
 to mimic the rhythm of the song)


[Verse]

(Strum once every chord) 

E   
I see you checkin out these moves girl
C#m 
Now lemme show you a thing or two
A
Whisper to me some good news
B
Aye I’m going places, I could bring you too

      E                   C#m
e|---------------------------------------------------------------------------|
B|---------------------------------------------------------------------------|
G|---9--9--9--9--------------------------------------------------------------|
D|---9--9--9--9--------9---11--11--11--11------------------------------------|
A|---7--7--7--7---9h11-----11--11--11--11-----9h11p9-------------------------|
E|-------------------------9---9---9---9-------------------------------------|
    A                     B                  E (opitonal)
e|---------------------------------------------------------------------------|
B|---------------------------------------------------------------------------|
G|---------------------------------------------------------------------------|
D|--7--7--7--7---------------9--9--9--9-----8--------------------------------|
A|--7--7--7--7---7h9p7-------9--9--9--9-----8--------------------------------|
E|--5--5--5--5---------------7--7--7--7-----6--------------------------------|

E
Now put down that drink, it’s time to impress ya
C#m
Get low on them kicks like ya never gonna stress em
A                             B
We don’t need rest, cuz I’mma leave your body on fire girl


[Chorus]

(Strum normally)

E                C#m
Girl your on my mind
A        
Getting down on the floor
B
Girl give a little more
E                C#m
Girl your on my mind
A        
Getting down on the floor
B
Girl give a little more
E
Girl I’m really really tryna keep you here
C#m
Girl I’m really tryna tryna keep you here
A
Girl I’m really really tryna keep you here
B
And you know I won’t let go of you baby


[Verse]

      E                   C#m
e|---------------------------------------------------------------------------|
B|---------------------------------------------------------------------------|
G|---9--9--9--9--------------------------------------------------------------|
D|---9--9--9--9--------9---11--11--11--11------------------------------------|
A|---7--7--7--7---9h11-----11--11--11--11-----9h11p9-------------------------|
E|-------------------------9---9---9---9-------------------------------------|
    A                     B                  E (opitonal)
e|---------------------------------------------------------------------------|
B|---------------------------------------------------------------------------|
G|---------------------------------------------------------------------------|
D|--7--7--7--7---------------9--9--9--9-----8--------------------------------|
A|--7--7--7--7---7h9p7-------9--9--9--9-----8--------------------------------|
E|--5--5--5--5---------------7--7--7--7-----6--------------------------------|

E
It’s too dark in here to see and too loud in here to talk
C#m
Let them hips do the walk, Fix your hair in your phone
A
You were born looking good
             B
No need to repeat myself again
E
A little dirty dancing, we not in Havana
C#m
We smokin' on cubans, it’s me she’s a fan of
A
Ain't moving better stand up
                              B
You straight from Atlanta and know just how I like it girl


[Chorus]

(Strum normally)

E                C#m
Girl your on my mind
A        
Getting down on the floor
B
Girl give a little more
E                C#m
Girl your on my mind
A        
Getting down on the floor
B
Girl give a little more
E
Girl I’m really really tryna keep you here
C#m
Girl I’m really tryna tryna keep you here
A
Girl I’m really really tryna keep you here
B
And you know I won’t let go of you baby



*******************
|h   Hammer-on
|p   Pull-off
*******************

            
            
Suggest correction
Creating personal tab
Creating personal tab
You can edit any tab online and save it as your Personal.

You can edit, replace or remove any tab part or add personal notes – all changes will be seen only by you.

Personal tabs can be accessed anytime from any device, even offline.
Learn more »
Give kudos to tab author, rate the tab!
1 2 3 4 5
comments
print report bad tab
guest
You may want to rate the tab now too:
select rating
Wanna post a correction for this tab? Suggest correction