Oops, an error
Loading. Please wait.

The Rain tab

by AER
1,852 views 21 this week
no commentswrite comment
1 2 3 4 5
x 4
add to favorites
×
Save as Personal and add changes to this tab that will be seen only by you. Learn more ›
×
You can save this tab as Personal to edit and correct it or add notes. All changes will be seen only by you. Learn more »
launch autoscroll
font size
0
reset
how to read this tab
guitar tuner
edit
Autoscroll
slow
fast
+/-
esc
set tempo
stop
Author
Difficulty
-------------------------------------------------------------------------------
                             The Rain - Aer
-------------------------------------------------------------------------------
Tabbed by: Huntsman
E-mail: flcutter23@gmail.com

This is the tab for "The Rain" by Are off their new album "One of a Kind"

I tabbed this song from a live recorded video. The video was recorded in their friend's dorm room, so I know
it's right. Please rate as this is my first tab. ROCK ON!

Note: I'm tabbing out the notes and the order they're played in. Listen to the song for the strum pattern.

Link to video used: https://www.youtube.com/watch?v=VIXy4BXj510

h= hammer on
b=bend
r=release bend
p= pull-off
s= slide
~~ = vibrato/hold

Tuning: Standard

Intro
   Bb  F   Cm  Gm  Eb  Bb  F
e|-1---1---3---3---6---6---8----------------------------------------------------|
B|-3---1---4---3---8---6---10---------------------------------------------------|
G|-3---2---5---3---8---7---10---------------------------------------------------|  x1
D|-3---3---5---5---8---8---10---------------------------------------------------|
A|-1---3---3---5---6---8---8----------------------------------------------------|
E|-----1-------3-------6--------------------------------------------------------|

Verse / Bridge ("I said that I missed her, but I didn't mean it....")

   Bb  F   Cm  Gm  Eb  Bb  F
e|-1---1---3---3---6---6---1---------------------------------------------------|
B|-3---1---4---3---8---6---1---------------------------------------------------|
G|-3---2---5---3---8---7---2---------------------------------------------------|  x4
D|-3---3---5---5---8---8---3---------------------------------------------------|
A|-1---3---3---5---6---8---3---------------------------------------------------|
E|-----1-------3-------6---1---------------------------------------------------|

Chorus  ("Here come the rain...."

   Gm   D#   A#  F
e|-10---11---6---8--------------------------------------------------------------|
B|-11---12---6---10-------------------------------------------------------------|
G|-12---12---7---10-------------------------------------------------------------|
D|-12---13---8---10-------------------------------------------------------------|   x4
A|-10---13---8---8--------------------------------------------------------------|
E|------11---6------------------------------------------------------------------|

Verse / Bridge ("I said I would visit, but I didn't make it....")

   Bb  F   Cm  Gm  Eb  Bb  F
e|-1---1---3---3---6---6---1---------------------------------------------------|
B|-3---1---4---3---8---6---1---------------------------------------------------|
G|-3---2---5---3---8---7---2---------------------------------------------------|  x4
D|-3---3---5---5---8---8---3---------------------------------------------------|
A|-1---3---3---5---6---8---3---------------------------------------------------|
E|-----1-------3-------6---1---------------------------------------------------|

Chorus ("Here comes the rain....")

   Gm   D#   A#  F
e|-10---11---6---8--------------------------------------------------------------|
B|-11---12---6---10-------------------------------------------------------------|
G|-12---12---7---10-------------------------------------------------------------|
D|-12---13---8---10-------------------------------------------------------------|   x4
A|-10---13---8---8--------------------------------------------------------------|
E|------11---6------------------------------------------------------------------|

Bridge to Solo ("And now the sun, shining bright....")

   Bb  F   Cm  Gm  Eb  A#  F
e|-1---1---3---3---6---------------------------------------------------------|
B|-3---1---4---3---8---6---1-------------------------------------------------|
G|-3---2---5---3---8---7---2-------------------------------------------------|  x2
D|-3---3---5---5---8---8---3-------------------------------------------------|
A|-1---3---3---5---6---------------------------------------------------------|
E|-----1-------3-------------------------------------------------------------|


Solo (I tabbed this by ear, so it's not exact. It sounds good to me though.)
Throw some reverb and echo in there and you're set!

e|----------------------------------------------------------------------------------|
B|----------------------------------------------------------------------------------|
G|-3h5--5b7--5b7(hold)--7r5p3----------3--3----3-----3--5b7--5b7(hold)--7r5p3-------|
D|-----------------------------5--3h5-------5------5---------------------------5----|
A|----------------------------------------------------------------------------------|
E|----------------------------------------------------------------------------------|

e|-------------------------------------------------------------------------------------|
B|------------------------------6--8p6-----6--8--8p6-----6--8--8p6----- ---------------|
G|-5b7(hold)--7r5p3----5--5s7----------7-------------7------------7-7b(pick on release)|
D|-------------------5-----------------------------------------------------------------|
A|-------------------------------------------------------------------------------------|
E|-------------------------------------------------------------------------------------|

e|-----------------------------------5--6~~ -------------------------------------------|
B|---------------------6--6--6--6s8----------------------------------------------------|
B|-5~~  5--5p3-----5~~ ----------------------------------------------------------------|
D|--------------5----------------------------------------------------------------------|
A|-------------------------------------------------------------------------------------|
E|-------------------------------------------------------------------------------------|

Chorus/Outro

   Gm   D#   A#  F
e|-10---11---6---8-----------------------------------------------------------------|
B|-11---12---6---10----------------------------------------------------------------|
G|-12---12---7---10----------------------------------------------------------------|
D|-12---13---8---10----------------------------------------------------------------|  x3
A|-10---13---8---8-----------------------------------------------------------------|
E|------11---6---------------------------------------------------------------------|

   Gm   D#   A#  F
e|-10---11---6---8----6------------------------------------------------------------|
B|-11---12---6---10---6------------------------------------------------------------|
G|-12---12---7---10---7(One strum to end the song)---------------------------------|
D|-12---13---8---10---8------------------------------------------------------------|  x1
A|-10---13---8---8-----------------------------------------------------------------|
E|------11---6---------------------------------------------------------------------|


************************************

| /   slide up
| \   slide down
| h   hammer-on
| p   pull-off
| ~   vibrato
| +   harmonic
| x   Mute note
| b   Bend
| pb  Pre-bend
| br  Bend release
| pbr Pre-bend release
| brb Bend release bend

************************************

            
            
Suggest correction
Creating personal tab
Creating personal tab
You can edit any tab online and save it as your Personal.

You can edit, replace or remove any tab part or add personal notes – all changes will be seen only by you.

Personal tabs can be accessed anytime from any device, even offline.
Learn more »
comments
print report bad tab
guest
You may want to rate the tab now too:
select rating
Wanna post a correction for this tab? Suggest correction