Oops, an error
Loading. Please wait.

Boundless Tab

49 views 3 this week
no commentswrite comment
1 2 3 4 5
3 more votes to show rating
add to favorites
launch autoscroll
font size
0
reset
how to read this tab
guitar tuner
Autoscroll
slow
fast
+/-
esc
set tempo
stop
Help us to improve Ultimate-Guitar.com Take our survey!
×
Author
Difficulty
novice
Link song: https://www.youtube.com/watch?v=mNn34ErU6kM


Tab of the melody at 0:12(Intro): ???

Tuning: ???

[Drop 1.A]
(0:46 - 1:07) Structure: A(x2) - B - A(x2) - C

       A
e|-----------
B|-----------
G|-----6---7-  
D|-5-6---5---
A|-----------
E|-----------


             B
e|----------------------
B|----------------------
G|-----4---5------3-2-1-  
D|-3-4---3----3-4-------
A|----------------------
E|----------------------


       A
e|-----------
B|-----------
G|-----6---7-  
D|-5-6---5---
A|-----------
E|-----------

             C
e|------------------------
B|------------------------
G|-----4---5------3-4---5- 
D|-3-4---3----3-4-----5---
A|------------------------
E|------------------------


[Drop 1.B] Structure: Ax2 - B - Ax2 - B
(1:08 - 1:19)


       A
e|-----------
B|-----------
G|-----6---7-  
D|-5-6---5---
A|-----------
E|-----------


             B
e|----------------------
B|----------------------
G|-----4---5------3-2-1-  
D|-3-4---3----3-4-------
A|----------------------
E|----------------------


       A
e|-----------
B|-----------
G|-----6---7-  
D|-5-6---5---
A|-----------
E|-----------


             B
e|----------------------
B|----------------------
G|-----4---5------3-2-1-  
D|-3-4---3----3-4-------
A|----------------------
E|----------------------


The 2nd drop at 2:17 is the same as the Drop 1.A and 1.B.
Suggest correction
Give kudos to tab author, rate the tab!
1 2 3 4 5
comments
print report bad tab
guest
You may want to rate the tab now too:
select rating
Wanna post a correction for this tab? Suggest correction