Oops, an error
Loading. Please wait.

Are You Ready Tab

167 views 1 this week
no commentswrite comment
1 2 3 4 5
please rate
add to favorites
launch autoscroll
font size
0
reset
how to read this tab
guitar tuner
Tab Pro tools
  • play this tab
  • loop segment
  • change instrument
  • show fretboard
  • metronome
×
Best way to learn
"Are You Ready"
Autoscroll
slow
fast
+/-
esc
set tempo
stop
Contributor
Tabbers playing skills
beginner
-------------------------------------------------------------------------------
Are You Ready? - Aerobitch
Are You Ready?

Aerobitch official site: http://www.evildistro.com/aerobitch/
-------------------------------------------------------------------------------
Tabbed by: axeslash
Email: holmzito@yahoo.com

Tuning: Standard

e|------------------------------------------------------------|
B|------------------------------------------------------------|
G|-5-5-5-5-5-5-5-5------------6-6-6-6-6-6-6-6-9-9-9-9-9-9-9-9-|
D|-5-5-5-5-5-5-5-5-6--X--3----6-6-6-6-6-6-6-6-9-9-9-9-9-9-9-9-|
A|-3-3-3-3-3-3-3-3-6--X--3----4-4-4-4-4-4-4-4-7-7-7-7-7-7-7-7-|
E|-----------------4--X--1------------------------------------|

e|------------------------------------------------------------|
B|------------------------------------------------------------|
G|-5-5-5-5-5-5-5-5------------6-6-6-6-6-6-6-6-6-6-6-6-6-6-6-6-|
D|-5-5-5-5-5-5-5-5-6--X--3----6-6-6-6-6-6-6-6-6-6-6-6-6-6-6-6-|
A|-3-3-3-3-3-3-3-3-6--X--3----4-4-4-4-4-4-4-4-4-4-4-4-4-4-4-4-|
E|-----------------4--X--1------------------------------------|

e|------------------------------------------------------------|
B|------------------------------------------------------------|
G|-5-5-5-5-5-5-5-5------------6-6-6-6-6-6-6-6-9-9-9-9-9-9-9-9-|
D|-5-5-5-5-5-5-5-5-6--X--3----6-6-6-6-6-6-6-6-9-9-9-9-9-9-9-9-|
A|-3-3-3-3-3-3-3-3-6--X--3----4-4-4-4-4-4-4-4-7-7-7-7-7-7-7-7-|
E|-----------------4--X--1------------------------------------|

e|------------------------------------------------------------|
B|------------------------------------------------------------|
G|-5-5-5-5-5-5-5-5------------6-6-6-6-6-6-6-6-6-6-6-6-6-6-6-6-|
D|-5-5-5-5-5-5-5-5-6--X--3----6-6-6-6-6-6-6-6-6-6-6-6-6-6-6-6-|
A|-3-3-3-3-3-3-3-3-6--X--3----4-4-4-4-4-4-4-4-4-4-4-4-4-4-4-4-|
E|-----------------4--X--1------------------------------------|

e|------------------------------------------------------------|
B|------------------------------------------------------------|
G|-5-5-5-5-5-5-5-5------------6-6-6-6-6-6-6-6-9-9-9-9-9-9-9-9-|
D|-5-5-5-5-5-5-5-5-6--X--3----6-6-6-6-6-6-6-6-9-9-9-9-9-9-9-9-|
A|-3-3-3-3-3-3-3-3-6--X--3----4-4-4-4-4-4-4-4-7-7-7-7-7-7-7-7-|
E|-----------------4--X--1------------------------------------|

e|------------------------------------------------------------|
B|------------------------------------------------------------|
G|-5-5-5-5-5-5-5-5------------6-6-6-6-6-6-6-6-6-6-6-6-6-6-6-6-|
D|-5-5-5-5-5-5-5-5-6--X--3----6-6-6-6-6-6-6-6-6-6-6-6-6-6-6-6-|
A|-3-3-3-3-3-3-3-3-6--X--3----4-4-4-4-4-4-4-4-4-4-4-4-4-4-4-4-|
E|-----------------4--X--1------------------------------------|

e|-------------------------------------------------------|
B|-------------------------------------------------------|
G|-9-9-9-9-9-9-9-9-9-9-9-9-9-9-9-9-6--X--5----6--X--5----|
D|-9-9-9-9-9-9-9-9-9-9-9-9-9-9-9-9-6--X--5----6--X--5----|
A|-7-7-7-7-7-7-7-7-7-7-7-7-7-7-7-7-4--X--3----4--X--3----|
E|-------------------------------------------------------| x4

e|------------------------------------------------------------|
B|------------------------------------------------------------|
G|-5-5-5-5-5-5-5-5------------6-6-6-6-6-6-6-6-9-9-9-9-9-9-9-9-|
D|-5-5-5-5-5-5-5-5-6--X--3----6-6-6-6-6-6-6-6-9-9-9-9-9-9-9-9-|
A|-3-3-3-3-3-3-3-3-6--X--3----4-4-4-4-4-4-4-4-7-7-7-7-7-7-7-7-|
E|-----------------4--X--1------------------------------------|

e|------------------------------------------------------------|
B|------------------------------------------------------------|
G|-5-5-5-5-5-5-5-5------------6-6-6-6-6-6-6-6-6-6-6-6-6-6-6-6-|
D|-5-5-5-5-5-5-5-5-6--X--3----6-6-6-6-6-6-6-6-6-6-6-6-6-6-6-6-|
A|-3-3-3-3-3-3-3-3-6--X--3----4-4-4-4-4-4-4-4-4-4-4-4-4-4-4-4-|
E|-----------------4--X--1------------------------------------|

e|------------------------------------------------------------|
B|------------------------------------------------------------|
G|-5-5-5-5-5-5-5-5------------6-6-6-6-6-6-6-6-9-9-9-9-9-9-9-9-|
D|-5-5-5-5-5-5-5-5-6--X--3----6-6-6-6-6-6-6-6-9-9-9-9-9-9-9-9-|
A|-3-3-3-3-3-3-3-3-6--X--3----4-4-4-4-4-4-4-4-7-7-7-7-7-7-7-7-|
E|-----------------4--X--1------------------------------------|

e|------------------------------------------------------------|
B|------------------------------------------------------------|
G|-5-5-5-5-5-5-5-5------------6-6-6-6-6-6-6-6-6-6-6-6-6-6-6-6-|
D|-5-5-5-5-5-5-5-5-6--X--3----6-6-6-6-6-6-6-6-6-6-6-6-6-6-6-6-|
A|-3-3-3-3-3-3-3-3-6--X--3----4-4-4-4-4-4-4-4-4-4-4-4-4-4-4-4-|
E|-----------------4--X--1------------------------------------|

e|-------------------------------------------------------|
B|-------------------------------------------------------|
G|-9-9-9-9-9-9-9-9-9-9-9-9-9-9-9-9-6--X--5----6--X--5----|
D|-9-9-9-9-9-9-9-9-9-9-9-9-9-9-9-9-6--X--5----6--X--5----|
A|-7-7-7-7-7-7-7-7-7-7-7-7-7-7-7-7-4--X--3----4--X--3----|
E|-------------------------------------------------------| x3

e|---------------------------------------------------------|
B|---------------------------------------------------------|
G|-9-9-9-9-9-9-9-9-9-9-9-9-9-9-9-9-6--X--5----6--X--5----6-|
D|-9-9-9-9-9-9-9-9-9-9-9-9-9-9-9-9-6--X--5----6--X--5----6-|
A|-7-7-7-7-7-7-7-7-7-7-7-7-7-7-7-7-4--X--3----4--X--3----4-|
E|---------------------------------------------------------|

Nice little guitar break

e|---------------------------------|
B|---------------------------------|
G|-9-9-9-9-9-9-9-9-9-9-9-9-9-9-9-9-|
D|-9-9-9-9-9-9-9-9-9-9-9-9-9-9-9-9-|
A|-7-7-7-7-7-7-7-7-7-7-7-7-7-7-7-7-|
E|---------------------------------|

e|-------------------------------------------------------|
B|-------------------------------------------------------|
G|-9-9-9-9-9-9-9-9-9-9-9-9-9-9-9-9-6--X--5----6--X--5----|
D|-9-9-9-9-9-9-9-9-9-9-9-9-9-9-9-9-6--X--5----6--X--5----|
A|-7-7-7-7-7-7-7-7-7-7-7-7-7-7-7-7-4--X--3----4--X--3----|
E|-------------------------------------------------------| x4

e|---------------------------------------------|
B|---------------------------------------------|
G|-5-5-5-5-5-5-5-5------------6----------------|
D|-5-5-5-5-5-5-5-5-6--X--3----6----------------|
A|-3-3-3-3-3-3-3-3-6--X--3----4----------------|
E|-----------------4--X--1---------------------|


| /  slide up
| \  slide down
| h  hammer-on
| p  pull-off
| ~  vibrato
| +  harmonic
| x  Mute note
===============================================================================
comments
We did not receive enough feedback on this tab! Please rate:
print report bad tab
1 2 3 4 5
I want to post or [tab]
guest
You may want to rate the tab now too:
select rating
Please do not post tabs as comments. Select "correction" instead!