Oops, an error
Loading. Please wait.

Amazing Tab

version 1
version 1

Solo

Interactive

27,274 views 33 this week
4 commentsread comments
1 2 3 4 5
x 8
add to favorites
×
Save as Personal and add changes to this tab that will be seen only by you. Learn more ›
launch autoscroll
font size
0
reset
how to read this tab
guitar tuner
backing track
0:00
0:00
Autoscroll
slow
fast
+/-
esc
set tempo
stop
Author
Difficulty
intermediate
Amazing                                     
Aerosmith
Outro Solo
Just the solo 
                                                            
e|--------------------------|------------------------------|
B|--------------------------|------------------------------|
G|---------5-5-5---5/7b-10r-|---------------------5h7-7b---|
D|--------------------------|-----------------5/7----------|
A|--3-----------------------|----3-3-3--3-3-3--------------|
E|--------------------------|------------------------------|
                                                                  
e|---------------------------------|--------------------------------|
B|---------------------------------|--------------------------------|
G|-------------------5-7-7b7r5-7h5-|-----5-5---5-5---5-5-3---3h2----|
D|---------------5/7---------------|---7-----7-----7-------5-----3--|
A|----3-3-3--3-3-------------------|--------------------------------|
E|---------------------------------|--------------------------------|
                                                      
e|---------------------------|--6------------------------|
B|------------------------6b-|--8----6r----4---6b4-------|
G|----5---5---5--5-5---------|---------------5-------5-5-|
D|---------------------------|---------------------------|
A|--3---3---3----------------|---------------------------|
E|---------------------------|---------------------------|
                                                                
e|--------------------------|--------------------------------------|
B|----6b-----6r-4---6b6-4---|--------------------------------------|
G|----------------5-------5-|-------------5-5/2------0h2h0-5-5---5-|
D|--------------------------|----7h5--5h7--------------------------|
A|--------------------------|--------------------3/5-----------3---|
E|--------------------------|--------------------------------------|
                                                                   
e|--------6---8-----------------|---11b-8-----8-----8-----------------|
B|----6b----6b--6b6b6-4---------|---------11b-------8-----------11/13-|
G|--5-------------------5----5--|---------------10b---9---------10/12-|
D|-------------------------7----|-----------------------10-10/7-------|
A|------------------------------|-------------------------------------|
E|------------------------------|-------------------------------------|
                                                
e|------------------------------------------------|
B|--13-13-13----13-13-----13----13----13----13-11b|
G|--12-12----12--------12----12----12----12-------|
D|------------------------------------------------|
A|------------------------------------------------|
E|------------------------------------------------|
                                         
e|------12-12-12-14b12----12-8-8-8-10r-8----|
B|---13-13-13----------13-13-8-8---------10-|
G|---------------------12-------------------|
D|------------------------------------------|
A|------------------------------------------|
E|------------------------------------------|
                              
e|--10h8------8---------8------8----8----8---|
B|-------8-11b8-10h8----8------8-11b8----8---|
G|-------------------10---8-----------10b--8-|
D|--------------------------10---------------|
A|-------------------------------------------|
E|-------------------------------------------|
                                                                             
e|--------------------------------------|---------------15r--12-10r-8----10r8----|
B|--------------------------------------|--------15r-13---------------10------10-|
G|-----8-8-10-10r-8h10-8-10b---8--------|---12r----------------------------------|
D|--10----------------------------10-10-|----------------------------------------|
A|--------------------------------------|----------------------------------------|
E|--------------------------------------|----------------------------------------|
                                                          
e|--10r-8----8-10r8----8h10h8----8h10h8----10h8----8-10h8----|
B|--------10--------10--------10--------10------10-8------10-|
G|-----------------------------------------------------------|
D|-----------------------------------------------------------|
A|-----------------------------------------------------------|
E|-----------------------------------------------------------|
                                                       
e|--8----------------------------------------------------|
B|--8----------------------------------------------------|
G|----10r8----8-----------8-10r-8----8-------------------|
D|---------10---10h8-10-----------10---10-8----10h8----8h|
A|------------------------------------------10------10---|
E|-------------------------------------------------------|
                                              
e|------------------------------------------------|
B|------------------------------------------------|
G|--------------------------------------------5-7-|
D|--10h8----8-----------------------------5h7-----|
A|-------10---10-9-8h6h8h6---6---6h8h6------------|
E|-------------------------8---8------------------|
                                                                      
e|------------------------------------|------8-----8-----8-----8----8-8-11-|
B|----------------------8b8-7-6-5-----|--11r-8-11r---11r---11r-8-11b--8-11-|
G|--7b-5-7---5-7r-5-7-5-------------5-|------------------------------------|
D|---------7----------------------7---|------------------------------------|
A|------------------------------------|------------------------------------|
E|------------------------------------|------------------------------------|
                                        
e|-----------------------------8-----------|
B|-------8----8----8----8----8-8----8-8----|
G|--8----8-10b8-10b--10b--10b----10b----10b|
D|----10-----------------------------------|
A|-----------------------------------------|
E|-----------------------------------------|
                                               
e|--8-----------------------8---------------------|
B|--8----8---11b-8----------8-8h11h8----8h11h8----|
G|----10b--8-10b-8-10r-8-10b---------11--------11-|
D|------------------------------------------------|
A|------------------------------------------------|
E|------------------------------------------------|
                                                                
e|--8------------------------------------------------------------|
B|--8------------------------------------------------------------|
G|----10b8-10b8-----8h10h8----10h8----8h10h8---------------------|
D|---------------10--------10------10--------10h9h8----10h8----8-|
A|--------------------------------------------------10------10---|
E|---------------------------------------------------------------|
                                                   
e|----------------------------------------------------|
B|----------------------------------------------------|
G|----------------------------------------------------|
D|--10h8----------------------------------------------|
A|-------10h9h8/6h8h6h8h6---8h6---6-8-6-8-6-8b6-8-6h8h|
E|------------------------8-----8---------------------|
                                                       
e|-------------------------------------------------------|
B|---------------------------------------------8h11h8----|
G|--------------------------------10h8----8-10b-------11-|
D|----------------------8h10h8---------10----------------|
A|--6---6-8-8h6-----6-8b-------10------------------------|
E|----8---------8-6b-------------------------------------|
                                                                               
e|--------------------------11h8----11h8----11h8h11-11h8--------------------------
B|--11h8----11h8----11h8---------11------11-----------------8-8-----11h8----8h11h8
G|-------11------11------10------------------------------10b-----11------10b------
D|--------------------------------------------------------------------------------
A|--------------------------------------------------------------------------------
E|--------------------------------------------------------------------------------
                                                                   
e|-------------------------------------------------------------------|
B|----------------8h11h8----8---------10-8----------------------8--8-|
G|--11h10h8h10h11--------11---11-10h8-10-8-10h8----10h8----8-10b-----|
D|----------------------------------------------10------10-----------|
A|-------------------------------------------------------------------|
E|-------------------------------------------------------------------|
                                                         
e|---------------------------------------------------------|
B|--8----10-8----------------------------------------------|
G|----11-10-8-10b8h10h8----10h8----8-10b11-11/10h8h10h8----|
D|----------------------10------10----------------------10-|
A|---------------------------------------------------------|
E|---------------------------------------------------------|
                                                    
e|------------------------------12-11-10----8---------|
B|------------------------------------------8---------|
G|--8---------------------10h12-12-11----10---8b------|
D|----10-10-10-10-10-10-8-----------------------10-10-|
A|----------------------------------------------------|
E|----------------------------------------------------|
                                                  
e|---------------------11-12-12-11-10-10------------|
B|-----------------------------------------------11b|
G|----------------9h11-11-12-------------8b---------|
D|---8h10-10-8b10--------------------------10-10----|
A|--------------------------------------------------|
E|--------------------------------------------------|
                                                   
e|-----------8----------------------------------------|
B|-----------8-11h8----8---------------------------11b|
G|------8h11--------11---11h10h8h10h8----8-10b-10-----|
D|------------------------------------10--------------|
A|----------------------------------------------------|
E|----------------------------------------------------|
                                               
e|----------------------------------------------|
B|--11b11b11b11b11b11b11b11b11r--11r--11r--11r--|
G|----------------------------------------------|
D|----------------------------------------------|
A|----------------------------------------------|
E|----------------------------------------------|
                                                                  
e|--------------------------------------|---------------------------|
B|--11r--11r-11r------------------------|---------------------------|
G|-----------------------5--------------|--------------5h3----------|
D|----------------0--2h5-5-5h7h5--------|--5h-7/-2------------------|
A|--------------------------------6h7-x-|----------1h3--------------|
E|--------------------------------------|---------------------------|
Suggest correction
comments
print report bad tab
4 comments total. Showing first comments.
-1 reply
tayxluh 10 Jun 16, 2007 05:51 AM

Hey, this is good tabbing but the only suggestion i have for you is to make a legend or key for the bends,hammer ons or whatever you have. like B= bends

0 reply
-Rock-N'-Roll- 50 Jul 15, 2007 04:20 PM

K

-1 reply
mlb9boston 10 Sep 13, 2007 06:58 AM

why cant someone write the rest of the song darnet

guest
You may want to rate the tab now too:
select rating
Wanna post a correction for this tab? Suggest correction