Oops, an error
Loading. Please wait.

Angel Bass Tab

version 1
version 1

Whole song

4,382 views 6 this week
no commentswrite comment
1 2 3 4 5
x 7
add to favorites
launch autoscroll
font size
0
reset
guitar tuner
Autoscroll
slow
fast
+/-
esc
set tempo
stop
Help us to improve Ultimate-Guitar.com Take our survey!
×
Angel by Aerosmith
Standard Tuning

(Intro)
G:-----------|-----------|-----------|-----------|
D:-----------|-----------|-----------|-----------|
A:6----------|6----------|6----------|3----1-----|
E:----8--4--8|----8--4--8|----8--4--8|----------4|

G:-----------|-----------|-----------|-----------|
D:-----------|-----------|-----------|-----------|
A:6-----6--6-|-----------|6-----3---3|-----------|
E:---6-------|-4--4--4--4|---8-------|-3--3--3--4|

G:-----------|-----------|-----------|-----------|
D:-----------|-----------|-----------|-----------|
A:1-1--3-3---|1-1--3-3---|1-1--3-3---|-1--1--1--1|
E:----------4|----------4|----------4|-----------|

You're my angel. . 
G:-----------|-----------|-----------|-----------|
D:-----------|-----------|-----------|-----------|
A:6----------|3----1-----|6----------|3----1-----|
E:----8--4--8|----------4|----8--4--8|----------4|

G:-----------|-----------|-----------|-----------|
D:-----------|-----------|-----------|-----------|
A:6---------6|-----------|----------6|5----------|
E:-----6-----|-4---4---4-|-4--4--4---|---8--3--4-|

G:-----------|-----------|-----------|-----------|
D:-0--0--1--1|-----------|-0--0--1--1|-----------|
A:-----------|-----------|-----------|-----------|
E:-----------|-4---4---4-|-----------|-4---4---4-|

G:-----------|-----------|-----------|-----------|
D:-0--0--1--1|-----------|-----------|-----------|
A:-----------|-----------|-1--1--1--1|-1--1--1--1|
E:-----------|-4---4---4-|-----------|-----------|

G:-----------|-----------|-----------|-----------|
D:-1--1------|-----------|-----------|-----------|
A:----------1|-3---------|-------1--1|-1--1--1--1|
E:-------4---|----4--4--4|-4--4------|-----------|

G:-----------|-----------|-----------|-----------|
D:-----------|-----------|-----------|-----------|  x5
A:6----------|3----1-----|6----------|3----1-----|
E:----8--4--8|----------4|----8--4--8|----------4|

Thanks, please rate after you learn it.
Tabbed by:
_TheBassist01_
Suggest correction
comments
print report bad tab
guest
You may want to rate the tab now too:
select rating
Wanna post a correction for this tab? Suggest correction