Oops, an error
Loading. Please wait.

Bitchs Brew Tab

version 1
version 1

Intro

Whole song

132 views 1 this week
no commentswrite comment
1 2 3 4 5
3 more votes to show rating
add to favorites
launch autoscroll
font size
0
reset
how to read this tab
guitar tuner
Autoscroll
slow
fast
+/-
esc
set tempo
stop
Help us to improve Ultimate-Guitar.com Take our survey!
×
Author
Difficulty
Tuning
novice
D A D G B E
-------------------------------------------------------------------------------
                             BITCH'S BREW - Aerosmith
-------------------------------------------------------------------------------
Tabbed by: sezar
E-mail: Keanu-rimedorf@hotmail.com

Tuning: Drop D

Acoustic Part:

e|-----0-------0-------0-----0-|
B|----0-0-----0-0-----0-0-----0|
G|---7---7---4---4---2---2-----|
D|--7-----7-4-----4-2-----2-0--|
A|-7-------4-------2-------0---|
E|-----------------------------|

Verse:

e|------|
B|-5-5-4|
G|-4-4-4|
D|-2-2-2|
A|-2-2-2|
E|------|

Chorus:

e|-------------------|
B|-------------------|
G|-------------------|
D|-------------------|
A|-5-2-5/7-5-5-2-2-0-|
E|-5-2-5/7-5-5-2-2-0-|


************************************

| /   slide up
| \   slide down
| h   hammer-on
| p   pull-off
| ~   vibrato
| +   harmonic
| x   Mute note
| b   Bend
| pb  Pre-bend
| br  Bend release
| pbr Pre-bend release
| brb Bend release bend

************************************
Suggest correction
Give kudos to tab author, rate the tab!
1 2 3 4 5
comments
print report bad tab
guest
You may want to rate the tab now too:
select rating
Wanna post a correction for this tab? Suggest correction