Oops, an error
Loading. Please wait.

Dream On Tab

version 2
1,774,767 views 4,371 this week
145 commentsread comments
1 2 3 4 5
excellent!
x 709
add to favorites
launch autoscroll
font size
0
reset
how to read this tab
guitar tuner
Autoscroll
slow
fast
+/-
esc
set tempo
stop
Help us to improve Ultimate-Guitar.com Take our survey!
×
Author
[Intro/Verse]

e|-4-----4---|-3-----3---|-4-----4---|-3-----3---|
B|-6-----6---|-4-----4---|-3-----3---|-2--1--2--1|
G|----5-----5|----5-----5|----5-----5|-----------|
D|-----------|-----------|-----------|-----------|
A|-----------|-----------|-----------|-----------|
E|-----------|-----------|-----------|-----------|

e|-4-----4---|-6-----6---|--8-----8---|--8--------|
B|-6-----6---|-8-----8---|--9-----9---|--9--------|
G|----5-----5|----5-----5|------------|--10-------|
D|-----------|-----------|----10----10|--10-------|
A|-----------|-----------|------------|-----------|
E|-----------|-----------|------------|-----------|

e|-4-----4---|-3-----3---|--4-----4---|-3-----3---|
B|-6-----6---|-4-----4---|--3-----3---|-2--1--2--1|
G|----5-----5|----5-----5|-----5-----5|-----------|
D|-----------|-----------|------------|-----------|
A|-----------|-----------|------------|-----------|
E|-----------|-----------|------------|-----------|

e|-4-----4---|-6-----6---|--8-----8---|--6---4---6|
B|-6-----6---|-6-----6---|--6-----6---|--6---6---6|
G|----5-----5|----5-----5|------------|-----------|
D|-----------|-----------|------------|-----------|
A|-----------|-----------|------------|-----------|
E|-----------|-----------|------------|-----------|

e|--8-----8---|-8\-6---6--|-----------|-----------|
B|--9-----9---|-8\-6---6--|-----------|-----------|
G|------------|-----------|-6--5--6--5|-6--5--6--5|
D|------------|-----------|-----------|-----------|
A|------------|-----------|-----------|-----------|
E|------------|-----------|-----------|-----------|
                        
(Lead Guitar)          

e|----------------|--------------------|--------------------------|
B|-----------5/6/8|-6/8/9-8/9/11-9h11p9|-8h9p8-6h8p6-4h6p4--2-1/13|
G|-6/5/3-5-6------|--------------------|--------------------------|
D|----------------|--------------------|--------------------------|
A|----------------|--------------------|--------------------------|
E|----------------|--------------------|--------------------------|

(Guitar 2 or keyboard)

e|-3-------3------|-3-------3----------|-3-----------3--------|
B|-2---1---2---1--|-2---1---2----1-----|-2-----1-----2-----1--|
G|----------------|--------------------|----------------------|
D|----------------|--------------------|----------------------|
A|----------------|--------------------|----------------------|
E|----------------|--------------------|----------------------|

In the verse is played the first line of the Intro:
And then:

e|-4-----4---|-3-----3---|-4-----4---|-3-----3---|
B|-6-----6---|-5-----5---|-6-----6---|-6-----6---|
G|----5-----5|----5-----5|----5-----5|----5-----5|
D|-----------|-----------|-----------|-----------|
A|-----------|-----------|-----------|-----------|
E|-----------|-----------|-----------|-----------|

e|-----------|-----------|
B|-----------|-----------|
G|-5--6--5--6|-5--6--5--6|
D|-----------|-----------|
A|-----------|-----------|
E|-----------|-----------|


[Chorus]

F5          D#5    
I know what nobody knows
C#5                D#5 
Where it comes and where it goes
F5          D#5              
I know it's everybody's sin
C#5                D#5 
You got to lose to know how to win


(Chord tabs)

     F5         D#5        C#5      
e|------------------------------------|
B|------------------------------------|
G|----10----------8----------6--------|
D|----10----------8----------6--------|
A|----8-----------6----------4--------|
E|------------------------------------|


[Verse 2]

e|----------------|----------------|
B|----------------|----------------|
G|-------------1--|----------------|
D|---------------3|~~~~~-----------|
A|-------1-2-3----|----------------|
E|-1-3-4----------|----------------|



[Chorus]

F5            D#5
Sing with me, sing for the years
C#5                    D#5
Sing for the laughter, sing for the tears
F5            D#5 
Sing with me, if it's just for tofay
C#5            D#5   
Mabye tomorrow the good Lord will take you away


[Solo]

e|-----------|-----------|
B|-----------|-----------|
G|-5--6--5--6|-5--6--5--6|
D|-----------|-----------|
A|-----------|-----------|
E|-----------|-----------|

e|---4-----4-----6|-----6--------|-8-----8-----8/-|-13-------------|
B|-----6-----6----|-6-----6------|---6-----6------|----------------|
G|-5-----5-----5--|---5-----5---5|-----5-----5----|----------------|
D|----------------|--------------|----------------|----------------|
A|----------------|--------------|----------------|----------------|
E|----------------|--------------|----------------|----------------|

e|-8-----8--------|---8-------8----|----------------|
B|-----6-----6----|-6-----6------6-|-6---8--8b9r8---|
G|----------------|----------------|----------------|
D|----------------|----------------|----------------|
A|----------------|----------------|----------------|
E|----------------|----------------|----------------|

e|---4-----4-----6|-----6--------|-8-----8-----8/-|-13-------------|
B|-----6-----6----|-6-----6------|---6-----6------|----------------|
G|-5-----5-----5--|---5-----5---5|-----5-----5----|----------------|
D|----------------|--------------|----------------|----------------|
A|----------------|--------------|----------------|----------------|
E|----------------|--------------|----------------|----------------|

e|-8-----8--------|---8-------8----|
B|-----6-----6----|-6-----6--------|
G|----------------|----------------|
D|----------------|----------------|
A|----------------|----------------|
E|----------------|----------------|


[Chorus]

e|----------------|----------------|
B|----------------|----------------|
G|--5-------------|--5-------------|
D|-----3-3-3-3----|-----5-5-5-5----|
A|----------------|----------------|
E|----------------|----------------|

e|----------------|----------------|
B|----------------|----------------|
G|----------------|----------------|
D|--5-------------|--5--3-3-3-3----|
A|-----6-6-6-6----|----------------|
E|----------------|----------------|

[Solo 2]

e|------------------|----------8-----|-------------------|---------------|
B|------------------|------------8-11|---8---------------|-8-11b13-------|
G|----8h9----8-9p8--|-8-10b12--------|----10-8---8-10b12r|---------------|
D|------10-------10e|----------------|-----------10------|---------------|
A|------------------|----------------|-------------------|---------------|
E|------------------|----------------|-------------------|---------------|

    A#5, C5, C#5, D#5

e|---12b14-------12b14-----|----12b14-------12b14r12|
B|-------------------------|------------------------|
G|-------------------------|------------------------|
D|-------------------------|------------------------|
A|-------------------------|------------------------|
E|-------------------------|------------------------|

e|--13-11------------------|------------------------|
B|---------13-11-----------|------------------------|
G|----------------13-10/---|-8--8-------------------|
D|-------------------------|------10-8-6------------|
A|-------------------------|-------------8-6~~~-----|
E|-------------------------|------------------------|

   A#5, C5, C#5, D#5
                                               
e|------------------|------------------|------------------|----------------|
B|------------------|-------------4-4--|-6--------6-9-9-6e|-9--11b12-11b12-|
G|-----------1-1----|-3-1---1-3/5-----5|----8-8-8---------|----------------|
D|-3-1---1-3------3e|-----3------------|------------------|----------------|
A|-----3------------|------------------|------------------|----------------|
E|------------------|------------------|------------------|----------------|

e|-----------------------------------|
B|-11b12-11b12-11b12-12~~~~----------|
G|-----------------------------------|
D|-----------------------------------|
A|-----------------------------------|
E|-----------------------------------|

   A#5, C5, C#5, D#5, F5, G5, G#5, A#5

(Chord tabs)

 A#5   C5   C#5   D#5   F5   G5   G#5   A#5(2)                             
e|----------------------------------------------------|
B|----------------------------------------------------|
G|-3-----5----6----8-----10---12----13----15----------|
D|-3-----5----6----8-----10---12----13----15----------|
A|-1-----3----4----6-----8----10----11----13----------|
E|----------------------------------------------------|

e|-----------------------------------|
B|-----------------------------------|
G|-----------------------------------|
D|---11-10--11-10--11-10--11-10------|
A|-----------------------------------|
E|-----------------------------------|


[Chorus]

F5          D#5    
I know what nobody knows
C#5                D#5 
Where it comes and where it goes
F5          D#5              
I know it's everybody's sin
C#5                D#5 
You got to lose to know how to win

F5          D#5    
I know what nobody knows
C#5                D#5 
Where it comes and where it goes
F5          D#5              
I know it's everybody's sin
C#5                D#5 
You got to lose to know how to win


[Outro]

e|-3-------3------|-3-------3----------|-3-----------3--------|
B|-2---1---2---1--|-2---1---2----1-----|-2-----1-----2-----1--|
G|----------------|--------------------|----------------------|
D|----------------|--------------------|----------------------|
A|----------------|--------------------|----------------------|
E|----------------|--------------------|----------------------|


*************************
| b   Bending
| r   Release bend
| h   Hammering on
| p   Pulling off
| /   Slide up
| \   Slide up
| ~   Vibrato
*************************
Suggest correction
comments
print report bad tab
145 comments total. Showing first comments. show 1 bad comment
+16 reply
minorsandinista 10 wrote on May 22 2004, 12:00 am

Calm down, dude. He was just saying his opinion on the tab.

+9 reply
monkeyarms 10 wrote on June 13 2004, 12:00 am

its pretty good but there are two guitars pretty much the whole time and you have it mostly just on one

guest
You may want to rate the tab now too:
select rating
Wanna post a correction for this tab? Suggest correction