Oops, an error
Loading. Please wait.
We have an official Dream On tab made by UG professional guitarists. Check out the tab »
×
526 views 21 this week
no commentswrite comment
1 2 3 4 5
x 4
add to favorites
×
Save as Personal and add changes to this tab that will be seen only by you. Learn more ›
×
You can save this tab as Personal to edit and correct it or add notes. All changes will be seen only by you. Learn more »
launch autoscroll
font size
0
reset
transpose
0
reset
simplify chords
display chords
guitar tuner
backing track
0:00
0:00
edit
Autoscroll
slow
fast
+/-
esc
set tempo
stop
Author
Difficulty
About this tab version
This is a more complete tab for ukulele. Was this info helpful? Yes No
Strumming
There is no strumming pattern for this song yet. and get +5 IQ
[Intro/Verse]
A|-8-----8---|-6-----6---|-5-----5---|-4--3--4--3|
E|-4-----4---|-3-----3---|-4-----4---|-3-----3---|
C|-----------|-----------|-----------|-----------|
G|----5-----5|----5-----5|----5-----5|-----------|
                                                    
A|-8-----8---|-----------|--5-----5---|--5--------|
E|-4-----4---|-6-----6---|------------|-----------|
C|-----------|-----------|------------|--5--------|
G|----5-----5|----5-----5|--5-5---5-5-|--5--------|
                                                    
A|-8-----8---|-6-----6---|--5-----5---|-4--3--4--3|
E|-4-----4---|-3-----3---|--4-----4---|-3-----3---|
C|-----------|-----------|------------|-----------|
G|----5-----5|----5-----5|-----5-----5|-----------|
                                                    
A|-8-----8---|-8-----8---|--8-----8---|--8---8---8|
E|-4-----4---|-6-----6---|------------|--6---4---6|
C|-----------|-----------|------------|-----------|
G|----5-----5|----5-----5|--5-----5---|-----------|
                 S                                  
A|--5-----5---|-5--8---8--|-----------|-----------|
E|------------|----6---6--|-----------|-----------|
C|------------|-----------|-----------|-----------|
G|--5-----5---|-5---------|-6--5--6--5|-6--5--6--5|

For intro repeat twice 
Then continue repeating for verse 
 
 Em       Em7    Em6         Am6 
   Every time I look in the mirror
 Em     Em7               Em6          Am6 
   All these lines on my face gettin' clearer
 Em    Em7           Em6    Am6 
        The past is gone
 Em      Em7     Em6     Am6 
It went by like dusk to dawn
 Em6                B7sus4    B7 
    Isn't that the way 
 Em6                   B7sus4          B7     Cmaj7  C#7  B7 
Everybody's got their dues in life to pay?
 Em     D            C                  D          
I know nobody knows where it comes and where it goes
 Em            D 
  I know it's everybody's sin
 C                   D          Em 
You got to lose to know how to win



[Chorus]
Em       Em7    Em6         Am6 
Half my life's in books' written pages
Em     Em7               Em6          Am6 
Lived and learned from fools and from sages
Em    Em7           Em6    Am6 
You know its true
Em      Em7     Em6     Am6 
all those things come back to you
 Em            D 
Sing with me, sing for the years
 C                      D 
Sing for laughter 'n' sing for the tears
 Em                    D 
Sing with me if it's just for today
 Em/C#                 Cmaj7                         
  Maybe tomorrow the   good Lord will take you away




[Outro]                                              FADE.....
A|-4---3---4---3--|-4---3---4----3-----|-4-----3-----4-----3--|
E|-3-------3------|-3-------3----------|-3-----------3--------|
C|----------------|--------------------|----------------------|
G|----------------|--------------------|----------------------|

            
            
Suggest correction
Creating personal tab
Creating personal tab
You can edit any tab online and save it as your Personal.

You can edit, replace or remove any tab part or add personal notes – all changes will be seen only by you.

Personal tabs can be accessed anytime from any device, even offline.
Learn more »
comments
print report bad tab
guest
You may want to rate the tab now too:
select rating
Wanna post a correction for this tab? Suggest correction