Oops, an error
Loading. Please wait.

Dream On Tab

version 5
77,663 views 144 this week
6 commentsread comments
1 2 3 4 5
excellent!
x 23
add to favorites
launch autoscroll
font size
0
reset
how to read this tab
guitar tuner
Autoscroll
slow
fast
+/-
esc
set tempo
stop
Help us to improve Ultimate-Guitar.com Take our survey!
×
Author
Difficulty
intermediate
AEROSMITH
Dream on

     Fm/C        Cm             Dm7b5/C    DbM7b5/C
e|--4-----4-----3-----3-----|--4----4-----3-----3-----|
B|--6-----6-----4-----4-----|--3----3-----2-----2-----|
G|-----5-----5-----5-----5--|----------5-----5-----5--|
D|--------------------------|-------------------------|
A|--------------------------|-------------------------|
E|--------------------------|-------------------------|

    Fm/C                       F5/C                    Fm/C        Cm
e|--4-----4-----6-----6-----|--8-----8-----8--------|--4-----4-----3-----3-----|
B|--6-----6-----6-----6-----|--6-----6-----6--------|--6-----6-----4-----4-----|
G|-----5-----5-----5-----5--|-----5-----5-----------|-----5-----5-----5-----5--|
D|--------------------------|-----------------------|--------------------------|
A|--------------------------|-----------------------|--------------------------|
E|--------------------------|-----------------------|--------------------------|

    Dm7b5/C    DbM7b5/C       Fm/C                       F5/C      FsuFm/C Fsus
e|--4----4-----3-----3-----|--4-----4-----6-----6-----|--8----8/---6--4-------|
B|--3----3-----2-----2-----|--6-----6-----6-----6-----|--6----6/---6--6----6--|
G|----------5-----5-----5--|-----5-----5-----5-----5--|-----------------------|
D|-------------------------|--------------------------|-----------------------|
A|-------------------------|--------------------------|-----------------------|
E|-------------------------|--------------------------|-----------------------|

         Fm/Ab   Fsus4
e|-------8----8/-6-------|--------------------------|
B|--9----9----9/-6----6--|--------------------------|
G|-----------------------|--6--5--6--5--6--5--6--5--|
D|-----------------------|--------------------------|
A|-----------------------|--------------------------|
E|-----------------------|--------------------------|

e|--------------------------------------|----------------------------------------|
B|------------5h6/8-6h8/9-8h9/11-9h11p9-|--8h9p8/6-6h8p6/4-4h6p4/2-2p1/13--------|
G|--6p5/3-5/6---------------------------|----------------------------------------|
D|--------------------------------------|----------------------------------------|
A|--------------------------------------|----------------------------------------|
E|--------------------------------------|----------------------------------------|

    Fm/C        Cm             Dm7b5/C    DbM7b5/C       Fm/C        Cm
e|--4-----4-----3-----3-----|--4----4-----3-----3-----|--4-----4-----3-----3-----|
B|--6-----6-----4-----4-----|--3----3-----2-----2-----|--6-----6-----4-----4-----|
G|-----5-----5-----5-----5--|----------x-----5-----5--|-----5-----5-----5-----5--|
D|--------------------------|-------------------------|--------------------------|
A|--------------------------|-------------------------|--------------------------|
E|--------------------------|-------------------------|--------------------------|

    Dm7b5/C     DbM7b5/C       Fm/C        Cm             Dm7b5/C   DbM7b5/C
e|--4-----4-----3-----3-----|--4-----4-----3-----3-----|--4----4----3-----3-----|
B|--3-----3-----2-----2-----|--6-----6-----4-----4-----|--3----3----2-----2-----|
G|-----5-----5-----5-----5--|-----5-----5-----5-----5--|---------------5-----5--|
D|--------------------------|--------------------------|------------------------|
A|--------------------------|--------------------------|------------------------|
E|--------------------------|--------------------------|------------------------|

    Fm/C        Cm             Dm7b5/C     DbM7b5/C
e|--4-----4-----3-----3-----|--4-----4-----3-----3-----|
B|--6-----6-----4-----4-----|--3-----3-----2-----2-----|
G|-----5-----5-----5-----5--|-----5-----5-----5-----5--|
D|--------------------------|--------------------------|
A|--------------------------|--------------------------|
E|--------------------------|--------------------------|

    Fm/C        Csus4 C        Fm/C        Csus4
e|--4-----4-----3-----3-----|--4-----4-----3-----3-----|
B|--6-----6-----6-----5-----|--6-----6-----6-----6-----|
G|-----5-----5-----5-----5--|-----5-----5-----5-----5--|
D|--------------------------|--------------------------|
A|--------------------------|--------------------------|
E|--------------------------|--------------------------|

                                                          F5          Eb5    Ebsu
e|--------------------------|--------------------------|------------------------|
B|--------------------------|--------------------------|------------------------|
G|--6--5--6--5--6--5--6--5--|--6--5--6--5--6--5--6--5--|--10------10/-----------|
D|--------------------------|--------------------------|--10------10/-8------8/-|
A|--------------------------|--------------------------|--8-------8/--6------6/-|
E|--------------------------|--------------------------|------------------------|

    Db5       Eb5    Ebsu  F5           Eb5    Ebsu  Db5          Ebsus2
e|----------------------|-------------------------|-----------------------|
B|----------------------|-------------------------|---------------6-------|
G|----------------------|-------------------------|---------------8-------|
D|--6------6/-8------8--|--10-------10/-8------8/-|--6------6/-8-------8--|
A|--4------4/-6------6--|------8----8/--6------6/-|--4------4/-6----------|
E|----------------------|-------------------------|-----------------------|

    Fm/C        Cm             Dm7b5/C    DbM7b5/C
e|--4-----4-----3-----3-----|--4----4---------------------|------------------|
B|--6-----6-----4-----4-----|--3----3---------------------|------------------|
G|-----5-----5-----5-----5--|----------5--------------1---|------------------|
D|--------------------------|---------------------------3~|------------------|
A|--------------------------|-------------------1-2h3-----|------------------|
E|--------------------------|-------------1-3-4-----------|------------------|

                       Fm/C        Cm             Dm7b5/C    DbM7b5/C
e|------------------|--4-----4-----3-----3-----|--4----4-----3-----3-----|
B|------------------|--6-----6-----4-----4-----|--3----3-----2-----2-----|
G|------------------|-----5-----5-----5-----5--|----------x-----5-----5--|
D|------------------|--------------------------|-------------------------|
A|------------------|--------------------------|-------------------------|
E|------------------|--------------------------|-------------------------|

    Fm/C        Cm             Dm7b5/C     DbM7b5/C
e|--4-----4-----3-----3-----|--4-----4-----3-----3-----|
B|--6-----6-----4-----4-----|--3-----3-----2-----2-----|
G|-----5-----5-----5-----5--|-----5-----5-----5-----5--|
D|--------------------------|--------------------------|
A|--------------------------|--------------------------|
E|--------------------------|--------------------------|

    Fm/C        Cm             Dm7b5/C   DbM7b5/C       Fm/C        Cm
e|--4-----4-----3-----3-----|--4----4----3-----3-----|--4-----4-----3-----3-----|
B|--6-----6-----4-----4-----|--3----3----2-----2-----|--6-----6-----4-----4-----|
G|-----5-----5-----5-----5--|---------------5-----5--|-----5-----5-----5-----5--|
D|--------------------------|------------------------|--------------------------|
A|--------------------------|------------------------|--------------------------|
E|--------------------------|------------------------|--------------------------|

    Dm7b5/C     DbM7b5/C       F5          Eb5   Ebsus2  Db5   Db    Eb5   Ebsus2
e|--4-----4-----3-----3-----|--------------------6/---|--------------------6/---|
B|--3-----3-----2-----2-----|--------------------6/---|--------6-----------6/---|
G|-----5-----5-----5-----5--|--10----10/---8-----8/---|--6-----6--6--8-----8/---|
D|--------------------------|--10----10/---8-----8/---|--6-----6--6--8-----8/---|
A|--------------------------|--8-----8/----6--6--6/---|--4--4--4--4--6--6--6/---|
E|--------------------------|-------------------------|-------------------------|

e|----------------------------|-----------------------------|
B|----------------------------|-----------------------------|
G|--5------------5------------|--5------------5-3-3-3-3~--x-|
D|----3-3-3-3~-----5-5-5-5~---|----6-6-6-6~-----------------|
A|----------------------------|-----------------------------|
E|----------------------------|-----------------------------|

e|--------------------------|--------------------------|
B|--------------------------|--------------------------|
G|--6--5--6--5--6--5--6--5--|--6--5--6--5--6--5--6--5--|
D|--------------------------|--------------------------|
A|--------------------------|--------------------------|
E|--------------------------|--------------------------|

    Fm/C          Fsus4/C              F5/C          Bb
e|----4-----4-----6-----6-----6-----|--8-----8-----8/13-13~-------|
B|------6-----6-----6-----6-----6---|----6-----6------------------|
G|--5-----5-----5-----5-----5-----5-|------5-----5----------------|
D|----------------------------------|-----------------------------|
A|----------------------------------|-----------------------------|
E|----------------------------------|-----------------------------|

    F5
e|--8----8--------8----------|-------8---------------|
B|-----6----6---6----6--6----|--6--6----8--8b--------|
G|-------------------------5-|-----------------------|
D|---------------------------|-----------------------|
A|---------------------------|-----------------------|
E|---------------------------|-----------------------|

    Fm/C              Fsus4/C             F5/C    Bb
e|----4---4-----4-----6----6-----|--6-----8-----8/13-13~-------|
B|----------6-----6----------6---|----6-----6------------------|
G|--5---------5-----5----5-----5-|------5-----5----------------|
D|-------------------------------|-----------------------------|
A|-------------------------------|-----------------------------|
E|-------------------------------|-----------------------------|

    F5                         F5          Eb5   Ebsus2  Db5   Db    Eb5   Ebsus2
e|--8----8--------8---------|--------------------6/---|--------------------6/---|
B|-----6----6---6----6---6/-|--------------------6/---|--------6-----------6/---|
G|--------------------------|--10----10/---8-----8/---|--6-----6--6--8-----8/---|
D|--------------------------|--10----10/---8-----8/---|--6-----6--6--8-----8/---|
A|--------------------------|--8-----8/----6--6--6/---|--4--4--4--4--6--6--6/---|
E|--------------------------|-------------------------|-------------------------|

e|----------------------------|-----------------------------|
B|----------------------------|-----------------------------|
G|--5------------5------------|--5------------5-3-3-3-3~--x-|
D|----3-3-3-3~-----5-5-5-5~---|----6-6-6-6~-----------------|
A|----------------------------|-----------------------------|
E|----------------------------|-----------------------------|

e|---------------------------------|------8-------------------------------|
B|---------------------------------|--------8-11-8----------------8---11r-|
G|--5~---5b-5--8-8b------10-8----8-|--10b----------10-8------8-10b--8-----|
D|-----------------10-10------10---|----------------------10--------------|
A|---------------------------------|--------------------------------------|
E|---------------------------------|--------------------8-----------------|

    Bb5       C5           Db5       Eb5
e|----------------------|----------------------|--------------------------|
B|----------------------|-----------------8/---|--16b---16b---16b---16b---|
G|----------------------|-----------------8/---|--------------------------|
D|--------3/5-5------5/-|--6------6/-8----8/---|--------------------------|
A|----------------------|----------------------|--------------------------|
E|----------------------|----------------------|--------------------------|

                                               Db5        C5
e|------------------------------------------|-----------------------|
B|--16b16--13-------------------------------|-----------------------|
G|------------15--13~-----------------------|-----------------------|
D|-------------------15--13-----------------|--3------3/5-5------5/-|
A|--------------------------15-14-13--------|-----------------------|
E|-----------------------------------16-13/-|-----------------------|

e|----------------------|-----------------------------------|
B|----------------------|-----------------------------------|
G|--6------6/-8------8--|----------------------------8-8----|
D|--6------6/-8------8--|------------6----8-6---6/10-----10-|
A|----------------------|--8-6---6-8----8-----8-------------|
E|----------------------|------8----------------------------|

                                                     Bb5    Bb5C5/G   C5/G
e|------------------------------------------------|----------------------|
B|------------------------------------------------|----------------------|
G|-----13-13-------13-13-15-13-15-15-15b15b15b15/-|----------------------|
D|--15-13-13-13-15-13-13-15-13-15-15-15b15b15b----|--3------3------------|
A|------------------------------------------------|--1------1--3------3--|
E|------------------------------------------------|------------3------3--|

    Db5/Ab   Eb5/Bb         F5       G5                Ab5         Bb5
e|-----------------------|--------------------------|--------------------------|
B|-----------------------|--------------------------|--------------------------|
G|-----------------------|--------------------------|--------------------------|
D|-----------------------|--------------------------|----------------------15/-|
A|--4------4/6-6------6/-|--8------8/10-10------10--|--11------11/-13----------|
E|--4------4/6-6------6/-|--8------8/10-10------10--|--11------11/-13------13/-|

    C                                  C
e|----------------------------------|----------------------------------|
B|----------------------------------|----------------------------------|
G|----------------------------------|----------------------------------|
D|--10--10--10--10--10--10--10--10--|--10--10--10--10--10--10--10--10--|
A|--10--10--10--10--10--10--10--10--|--10--10--10--10--10--10--10--10--|
E|--8---8---8---8---8---8---8---8---|--8---8---8---8---8---8---8---8---|

    Fm          Eb5  Eb      Db              Ebsus2  F5     Fm          EbsEb5
e|------------------------|------------------6----|---------------------6-----|
B|--9-----9/----x----8/---|--6----6----------6----|---------9/----x-----6-----|
G|--10----10/---8----8/---|--6----6----------8----|--10-----10/---8-----8--8/-|
D|--10----10/---8----8/---|--6----6----------8----|--10-----10/---8-----8--8/-|
A|--8-----8/----6----6/---|--4----4----6--6--6----|--8---8--8/----6--6--6--6/-|
E|------------------------|-----------------------|---------------------------|


    Db        Ebsus2        F5     Fm    Eb5   EbsEb5   Db         Ebsus2
e|------------6-----6----|---------------------6-----|-------------6-----6----|
B|--6------6--6-----6----|---------9-----------6-----|--6----6--6--6-----6----|
G|--6------6--8-----8----|---------10----------8--8/-|--6----6--6--8-----8----|
D|--6------6--8-----8----|--10-----10----8-----8--8/-|--6----6--6--8-----8----|
A|--4------4--6--6--6----|--8---8--8-----6--6--6--6/-|--4----4--4--6--6--6----|
E|-----------------------|---------------------------|------------------------|

e|----------------------------|----------------------------|-------------------|
B|----------------------------|----------------------------|-------------------|
G|--5------------5------------|--5------------5-3-3-3-3~---|--5~---------------|
D|----3-3-3-3~-----5-5-5-5~---|----6-6-6-6~----------------|-------------------|
A|----------------------------|----------------------------|-------------------|
E|----------------------------|----------------------------|-------------------|

e|------------------|--------------------------------|
B|------------------|--------------------------------|
G|------------------|--------------------------------|
D|------------------|--1-3-1---3-1-----3-----3-------|
A|------------------|--------3-----3-----------------|
E|------------------|----------------4---4-3---3-1---|


************************************

| x  Dead note
| h  Hammer-on
| p  Pull-off
| r  Release
| b  Bend
| /  Slide up
| ~  Vibrato

************************************
Suggest correction
comments
print report bad tab
6 comments total. Showing first comments.
+1 reply
Supernaught 41 wrote on October 8 2009, 01:29 pm

Really really good, well done :)

+1 reply
bass.is.evan 10 wrote on March 15 2010, 07:08 pm

great tab man.

time measures or guides?

0 reply
thrill606 40 wrote on July 28 2012, 12:43 am

Isn't there something else at the end of the first solo that none of the dream on tabs have?
Anyway great tab man, I'm enjoying it.

guest
You may want to rate the tab now too:
select rating
Wanna post a correction for this tab? Suggest correction