Oops, an error
Loading. Please wait.

Dude Looks Like A Lady Tab

version 2
version 2

Solo

Whole song

Interactive

51,125 views 39 this week
no commentswrite comment
1 2 3 4 5
accurate
x 8
add to favorites
launch autoscroll
font size
0
reset
how to read this tab
guitar tuner
Tab Pro tools
  • play this tab
  • loop segment
  • change instrument
  • show fretboard
  • metronome
Autoscroll
slow
fast
+/-
esc
set tempo
stop
-------------------------------------------------------------------------------
		Dude looks like a lady - aerosmith
-------------------------------------------------------------------------------

Tabbed by:James
Email:jewish_yamulka_man@hotmail.com

Tuning:normal

I'm pretty sure this si right
e-mail me to give me suggestions, cheers

Intro

e|---------------------------------------------------------------------------|
B|--5---5---5-------5---5---5-------5---5---5------5---5---5-----------------|
G|--2---2---2-------2---2---2-------2---2---2------2---2---2-----------------|
D|---------------------------------------------------------------------------|
A|---------------------------------------------------------------------------|
E|---------------------------------------------------------------------------|
									      x4
e|----5----5----3----5-------------------------------------------------------|
B|----5----5----3----5-------------------------------------------------------|
G|----2----2----0----2------2--2--4--2--2--5--5------------------------------|
D|---------------------------------------------------------------------------|
A|---------------------------------------------------------------------------|
E|---------------------------------------------------------------------------|

Verse
PM--------------------------------------------|				      x4
e|---5-----5----3---5-------2--2--2--3--2--3--2------------------------------|
B|---5-----5----3---5-------3--3--3--3--3--3--3------------------------------|
G|---2-----2----0---2-------2--2--2--2--2--2--2------------------------------|
D|---------------------------------------------------------------------------|
A|---------------------------------------------------------------------------|
E|---------------------------------------------------------------------------|

Chorus
gtr 1
e|--5---5---3---5------------------------------------------------------------|
B|--5---5---3---5------------------------------------------------------------|
G|--2---2---0---2----2--2--4--2--2--5--5-------------------------------------|
D|---------------------------------------------------------------------------|
A|---------------------------------------------------------------------------|
E|---------------------------------------------------------------------------|

gtr2
e|---------------------------------------------------------------------------|
B|--5---5---5-----------------5---5---5--------------------------------------|
G|--2---2---2-----------------2---2---2--------------------------------------|
D|---------------------------------------------------------------------------|
A|---------------------------------------------------------------------------|
E|---------------------------------------------------------------------------|

pre solo
			   x2
e|----5---5---3---5-----1----------------------------------------------------|
B|----5---5---3---5-----1----------------------------------------------------|
G|----2---2---0---2-----2----------------------------------------------------|
D|----------------------3----------------------------------------------------|
A|----------------------3----------------------------------------------------|
E|----------------------1----------------------------------------------------|

e|-------------------0----------------------------------------3--------------|
B|-------------------0----------------------------------------3--------------|
G|-7--7--7--5--7-----1----------------------------------------4--------------|
D|-7--7--7--5--7-----2----------------------------------------5--------------|
A|-5--5--5--3--5-----2----------------------------------------5--------------|
E|-------------------0----------------------------------------3--------------|

solo

e|---------------------------------------------------------------------------|
B|---------------------------------------------------------------------------|
G|-------------2p0---4p0---4p2p0----4p0-0------------------------------------|
D|---------------------------------------------------------------------------|
A|---0-0--2p0--------------------------------3--3--3--3--3-------------------|
E|---------------------------------------------------------------------------|

e|---------------------------------------------------------------------------|
B|--------------------------------5-5--7--5---7b(8)--7-5-7-5--------5--------|
G|--------------------------------5-5--7--5---7b(8)--7-5-7-5--------5--------|
D|---------------------------4/5---------------------------------------------|
A|---0-0--2p0----------2p0---------------------------------------------------|
E|-------------3p2p0-------------------------------------------5\(0)--5\(0)--|

e|--------------------------8-8-8-8------------5---------------8-8-8-8-------|
B|-------------7--5--7--5---8-8-8-8--5-7b(8)---5--7-5-7-5-7-5--8-8-8-8---8/--|
G|---7-7--5-7--7--5--7--5------------5-7b(8)------7-5-7-5-7-5----------------|
D|---7-7--5-7----------------------------------------------------------------|
A|---------------------------------------------------------------------------|
E|---------------------------------------------------------------------------|
									      
e|------------17-------------------------17-17-------------------------------|
B|-----16h17------17-20p17--20p17--20p17-------17h20p17---16h17--------------|
G|---------------------------------------------------------------------------|
D|---------------------------------------------------------------------------|  
A|---------------------------------------------------------------------------|
E|---------------------------------------------------------------------------|

e|-----------17------------|----------17----------17----------17----------17-|
B|-----16h17-----17-20p17--|--20b(22)-----20b(22)-----20b(22)-----20b(22)----|
G|-------------------------|-------------------------------------------------|
D|-------------------------|-------------------------------------------------|
A|-------------------------|-------------------------------------------------|
E|-------------------------|-------------------------------------------------|

After solo

e|---------------------------------------------------------------------------|
B|---9--9--7--9---x--x--x--x--x----------------------------------------------|
G|---9--9--7--9---x--x--x--x--x----------------------------------------------|
D|---9--9--7--9---x--x--x--x--x----------------------------------------------|x2
A|---7--7--5--7---x--x--x--x--x----------------------------------------------|
E|---------------------------------------------------------------------------|

gtr1

e|---------------------------------------------------------------------------|
B|---x--x--x--x--------------------------------------------------------------|
G|---x--x--x--x--------------------------------------------------------------|
D|---x--x--x--x--------------------------------------------------------------|
A|---x--x--x--x--------------------------------------------------------------|
E|---------------------------------------------------------------------------|

gtr 2

e|---------------------------------------------------------------------------|
B|---------------------------------------------------------------------------|
G|---------------------------------------------------------------------------|
D|---------------------------------------------------------------------------|
A|---------------------------------------------------------------------------|
E|----2b----------(0)--------------------------------------------------------|

e|--------------------------------------------3------------------------------|
B|--9--9--7--9--------------------------------3------------------------------|
G|--9--9--7--9--------------------------------4------------------------------|
D|--9--9--7--9--------------------------------5------------------------------|
A|--7--7--5--7--------------------------------5------------------------------|
E|--------------------------------------------3------------------------------|

order:
	intro
	verse
	chorus
	verse
	chorus
	verse
	chorus
	pre solo
	solo
	after solo
	chorus x3


| PM---| Palm mute
| /  slide up
| \  slide down
| h  hammer-on
| p  pull-off
| x  Mute note
===============================================================================
comments
print report bad tab
I want to post or [tab]
guest
You may want to rate the tab now too:
select rating
Please do not post tabs as comments. Select "correction" instead!