Oops, an error
Loading. Please wait.

Eat The Rich Tab

version 2
version 2

Whole song

Interactive

25,922 views 51 this week
1 commentread comment
1 2 3 4 5
x 9
add to favorites
launch autoscroll
font size
0
reset
how to read this tab
guitar tuner
Autoscroll
slow
fast
+/-
esc
set tempo
stop
Help us to improve Ultimate-Guitar.com Take our survey!
×
Author
Difficulty
intermediate
EAT THE RICH TAB
Tuning: Standard

[Intro]

e|----------------------------------|
B|----------------------------------|
G|----------------------------------|
D|--2--2----2--2----2--2----2--2----|
A|--2--2----2--2----2--2----2--2----|
E|--0--0----0--0----0--0----0--0----|

e|-------------------------------------|
B|-------------------------------------|
G|-------------------------------------|
D|------5~~-----------------------2--2-|
A|--5h7----5h7---------5----------2--2-|
E|-------------3~~-5/7---7--5--3--0--0-|(x4)

Riff played during verse:
Try to hit every note

e|------------------------------------------------------|
B|------------------------------------------------------|
G|------------------------------------------------------|
D|------------------------------------------------------|
A|---------------5p0------------------------------------|
E|---5p0---7p0---------7p0--4p0--5p0--6p0--7p0----------|


[Pre-Chorus]

e|---------------------------------------------------------|
B|---------------------------------------------------------|
G|---------------------------------------------------------|
D|--2----4------5----7--7brp5----2----4------5----7--7b~~~-|
A|--2----4------5----7--------7--2----4------5----7--------|
E|--0----2------3----5-----------0----2------3----5--------|


e|----------------------------------------------------------|
B|----------------------------------------------------------|
G|----------------------------------------------------------|
D|--2----4------5----7------9-9-9-9-9-9-9-9-9-9-9-9-9-9-9-9-|
A|--2----4------5----7------9-9-9-9-9-9-9-9-9-9-9-9-9-9-9-9-|
E|--0----2------3----5------7-7-7-7-7-7-7-7-7-7-7-7-7-7-7-7-|

[Chorus]

    Eat...       Theres only...
e|--------------------------------|
B|------------------------------5-|
G|------------------------------4-|
D|--9--7---------7--------------2-|
A|--7--5---------5--9-------------|
E|--------5br~------7--5--3--0----|(x4)

Sorry No Solo.



************************************

| ~   Vibrato
| h   Hammer-on
| /   Slide up
| p   Pull-off
| br  bend release
| pb  Pre-bend
| brb Bend release bend

************************************
Suggest correction
comments
print report bad tab
1 comment total.
0 reply
TMoreau15 10 Dec 30, 2015 08:31 PM

Thanks for this, at least I can play the song and pretend to scream like Steven Tyler.

guest
You may want to rate the tab now too:
select rating
Wanna post a correction for this tab? Suggest correction