Oops, an error
Loading. Please wait.

Full Circle Tab

version 1
version 1

Solo

Whole song

2,483 views 1 this week
no commentswrite comment
1 2 3 4 5
please rate
add to favorites
launch autoscroll
font size
0
reset
how to read this tab
guitar tuner
Tab Pro tools
  • play this tab
  • loop segment
  • change instrument
  • show fretboard
  • metronome
×
Best way to learn
"Full Circle"
Autoscroll
slow
fast
+/-
esc
set tempo
stop
Contributor
FULL CIRCLE
NINE LIVES


SOLO: 

02:46 – 03:10
	
|----5-5----5-5----5-5-5-5--10----|
|----5-5----5-5----5-5-5-5-----10-|
|-7b-----7b-----7b----------------|
|---------------------------------|
|---------------------------------|
|---------------------------------|



|-----10-----10---------------------10--------------10----|
|-13b----13b----12b-10-------13b-------13-10-----10----10-|
|---------------12b----12p10-----------------12b----------|
|---------------------------------------------------------|
|---------------------------------------------------------|
|---------------------------------------------------------|


     ~~
|--13----10------------10-----------------10----------|
|-----------13-10-13b-----13-10----12-12b-10-10-12-10-|
|----------------------------12br--12-12b----10-12-10-|
|-----------------------------------------------------|
|-----------------------------------------------------|
|-----------------------------------------------------|



|--------------------------------------|
|--12br---10----12-10-10----10-12-10---|
|--12br---10----12-10-10----10-12-10---|
|------------12----------12------------|
|--------------------------------------|
|--------------------------------------|


	                 ~~~~	~~~~
|------------------|----------------15b--15b---|
|--12b-12-10----10-|--15b----15b---------------|
|--12b-12-10----10-|---------------------------|
|------------12----|---------------------------|
|------------------|---------------------------|
|------------------|---------------------------|



|15p12----15p12----15p12----15p12----12h15p12-|
|------15-------15-------15-------15----------|
|---------------------------------------------|
|---------------------------------------------|
|---------------------------------------------|
|---------------------------------------------|



|-----12----12----------------------------------|
|--15----15----15p14p12----14----12h14p12----12-|
|-----------------------14----14----------14----|
|-----------------------------------------------|
|-----------------------------------------------|
|-----------------------------------------------|



|---------------------------------------------|
|-----12h15p12--------------------12h15p12----|
|-14b----------14brp12--14p12-14b-------------|
|---------------------------------------------|
|---------------------------------------------|
|---------------------------------------------|


	 ~~~~~~~~
|--------------------------------------------------|
|------12----------------------------15------------|
|--14b----14brp12----14-----12---14b----14b--------|
|-----------------14----14-------------------------|
|--------------------------------------------------|
|--------------------------------------------------|


Tab by Ge

e-mail: ge_n_roses@hotmail.com
comments
We did not receive enough feedback on this tab! Please rate:
print report bad tab
1 2 3 4 5
I want to post or [tab]
guest
You may want to rate the tab now too:
select rating
Please do not post tabs as comments. Select "correction" instead!