Oops, an error
Loading. Please wait.

Gotta Love It Bass

version 1
version 1

Whole song

Interactive

824 views 1 this week
no commentswrite comment
1 2 3 4 5
3 more votes to show rating
add to favorites
×
Save as Personal and add changes to this tab that will be seen only by you. Learn more ›
launch autoscroll
font size
0
reset
guitar tuner
Autoscroll
slow
fast
+/-
esc
set tempo
stop
Author
Tuning
E A D G
Aerosmith
Gotta Love It
Bassist: Tom Hamilton
Tabbed by: Cameron C       lilchitarra@yahoo.com

starting before the solo... at around 2:19

G|---------------------|
D|---------------------|
A|---------------------|
E|---0--2--3--5--l-----|     x5

  2:44
G|-----------------------------------|
D|-----------------------------------|
A|--3-2-3-2-3-2-3-2-3-2-3-2-3-2-3-2--|
E|-----------------------------------|

now the actual solo

 2:50
G|--7--7--9-7---999-7--7---999-777--------------|
D|--------------------9--------------999-555-2--|
A|----------------------------------------------|
E|----------------------------------------------|

G|--9-12b-(x4or x5)-/12-14b(slow gradual bend)----12---------|
D|------------------------------------------------14-12-13---|
A|-----------------------------------------------------------|
E|-----------------------------------------------------------|

G|----------------------------|
D|----------------------------|
A|----------------------------|
E|---10\---10\---8--7--5--3---|

 during guitar solo  3:05
G|---------------------------------------------------|
D|---------------------------------------------------|
A|---------------------------------------------------|
E|--0--0--0--0--0--0--0--0---10\---10\---8--7--5--3--|


thats most of it... good luck
Suggest correction
Give kudos to tab author, rate the tab!
1 2 3 4 5
comments
print report bad tab
guest
You may want to rate the tab now too:
select rating
Wanna post a correction for this tab? Suggest correction