Oops, an error
Loading. Please wait.
We have an official I Dont Want To Miss A Thing tab made by UG professional guitarists. Check out the tab »
×
47,815 views 30 this week
2 commentsread comments
1 2 3 4 5
x 9
add to favorites
launch autoscroll
font size
0
reset
how to read this tab
guitar tuner
backing track
0:00
0:00
Autoscroll
slow
fast
+/-
esc
set tempo
stop
Author
[Verse]
         D         A2              Bm
I could stay awake just to hear you breathing
            G                   D2
Watch your smile while you are sleeping
             G/E
While you're far away dreaming
         D            A2          Bm
I could spend my life in this sweet  surrender
         G                 D2       G/E
I could stay lost in this moments forever

e|---0---------3---|----------------|
B|-------2---3---3-|-3--3--3-3-3333-|
G|-----2-----------|-2--2--2-2-2222-|
D|-4---------------|-2--2--2-2-2222-|
A|-----------------|-0--0--0-0-0000-|
E|---------3-------|----------------|

[Chorus]
e|------------------|-------0----0----|-----3------------|
B|-----3-------3----|-----3------3----|-----3--3---------|
G|---2-------2---20-|-----------------|-----0-0----0---0-|
D|-0-----0--------0-|-----------------|-----------0-0-0--|
A|---------4--------|---2------2------|---2--------------|
E|------------------|-0------------02-|-3-------3--------|

e|-----------------|-------0----0----|-----3------------|
B|----3-------3----|-----3------3----|-----3--3---3---0-|
G|-2---2----2---20-|------------0----|-----0------02--0-|
D|-0----0--------0-|-----------------|-------------2----|
A|-0------4--------|---2------2------|---2-----2---0----|
E|-----------------|-0------------02-|-3-------3--------|

e|-----------------|-------0------|
B|-3--3-------3-30-|-----3---3----|
G|-2---2------2-20-|--------------|
D|-0----0---0------|--------------|
A|-0------4--------|---2----------|
E|-----------------|-0------------|

[Verse]
e|-2---------|-7------------|-3-----------3-|-----------------|
B|-3----2----|-7----7-------|-3---3-3--3-3--|-3-3---3---3---3-|
G|-2----2----|-7------7-----|-0-----2-------|-0---------------|
D|-0----2----|-9--------9---|-0-----0-------|-2---2---2---2---|
A|------4----|-9----------9-|-x-----0-------|-2---------------|
E|-----------|-7------------|-3-----2-------|-----------------|

e|-2---------|---------2---2---|---0-----2---3---|----------------|
B|-3----2----|-3---3----3---3--|--2----2--3----0-|-3---333-3-3333-|
G|-2----2----|-4-4---4---4---4-|-2---2-----4-----|-2---222-2-2222-|
D|-0----2----|-4---------------|-----------------|-2---222-2-2222-|
A|------4----|-2---------------|-----------------|-0---000-0-0000-|
E|-----------|-----------------|-----------------|----------------|

[Chorus]
e|------------------|-------0----0----|-----3------------|
B|-----3-------3----|-----3------3----|-----3--3---------|
G|---2-------2---20-|-----------------|-----0-0----0---0-|
D|-0-----0--------0-|-----------------|-----------0-0-0--|
A|---------4--------|---2------2------|---2--------------|
E|------------------|-0------------02-|-3-------3--------|

                                                             And I don't wanna
e|-----------------|-------0----0----|-----3------------|-2-2----2-------2-|
B|----3-------3----|-----3------3----|-----3--3---3---0-|-3-3----3-------3-|
G|-2---2----2---20-|------------0----|-----0------02--0-|-2-2----2-------2-|
D|-0----0--------0-|-----------------|-------------2----|-0-0----0-------0-|
A|-0------4--------|---2------2------|---2-----2---0----|------------------|
E|-----------------|-0------------02-|-3-------3--------|------------------|

[Bridge]
C
Miss one smile
              G2
I don't wanna miss one kiss
             A#
I just wanna be with you
                     F
Right here with you, Just like these
                  C
Well I just wanna hold you close
                       G2
And feel your heart so close to mine
         F/D
And just stay here in this moment
            Asus4
For all the rest of time
A
Yeah (Yeah) Yeah (Yeah) Yeah

[Chorus]
e|------------------|-------0----0----|-----3------------|
B|-----3-------3----|-----3------3----|-----3--3---------|
G|---2-------2---20-|-----------------|-----0-0----0---0-|
D|-0-----0--------0-|-----------------|-----------0-0-0--|
A|---------4--------|---2------2------|---2--------------|
E|------------------|-0------------02-|-3-------3--------|

e|-----------------|-------0----0----|-----3------------|
B|----3-------3----|-----3------3----|-----3--3---3---0-|
G|-2---2----2---20-|------------0----|-----0------02--0-|
D|-0----0--------0-|-----------------|-------------2----|
A|-0------4--------|---2------2------|---2-----2---0----|
E|-----------------|-0------------02-|-3-------3--------|

e|------------------|-------0----0----|-----3------------|
B|-----3-------3----|-----3------3----|-----3--3---------|
G|---2-------2---20-|-----------------|-----0-0----0---0-|
D|-0-----0--------0-|-----------------|-----------0-0-0--|
A|---------4--------|---2------2------|---2--------------|
E|------------------|-0------------02-|-3-------3--------|

Bm                   A2          G2
   Cause even when I dream of you
The sweetest dream will never do
          G
I'd still miss you babe
                  A
And I don't wanna miss a thing

e|------------------|-------0----0----|-----3------------|
B|-----3-------3----|-----3------3----|-----3--3---------|
G|---2-------2---20-|-----------------|-----0-0----0---0-|
D|-0-----0--------0-|-----------------|-----------0-0-0--|
A|---------4--------|---2------2------|---2--------------|
E|------------------|-0------------02-|-3-------3--------|

e|-----------------|-------0----0----|-----3------------|
B|----3-------3----|-----3------3----|-----3--3---3---0-|
G|-2---2----2---20-|------------0----|-----0------02--0-|
D|-0----0--------0-|-----------------|-------------2----|
A|-0------4--------|---2------2------|---2-----2---0----|
E|-----------------|-0------------02-|-3-------3--------|

                                        Start fading out
e|------------------|-------0----0----|-----3------------|
B|-----3-------3----|-----3------3----|-----3--3---------|
G|---2-------2---20-|-----------------|-----0-0----0---0-|
D|-0-----0--------0-|-----------------|-----------0-0-0--|
A|---------4--------|---2------2------|---2--------------|
E|------------------|-0------------02-|-3-------3--------|

e|-----------------|-------0----0----|-----3------------|
B|----3-------3----|-----3------3----|-----3--3---3---0-|
G|-2---2----2---20-|------------0----|-----0------02--0-|
D|-0----0--------0-|-----------------|-------------2----|
A|-0------4--------|---2------2------|---2-----2---0----|
E|-----------------|-0------------02-|-3-------3--------|

e|------------------|-------0----0----|-----3------------|
B|-----3-------3----|-----3------3----|-----3--3---------|
G|---2-------2---20-|-----------------|-----0-0----0---0-|
D|-0-----0--------0-|-----------------|-----------0-0-0--|
A|---------4--------|---2------2------|---2--------------|
E|------------------|-0------------02-|-3-------3--------|

e|-----------------|-------0----0----|-----3------------|
B|----3-------3----|-----3------3----|-----3--3---3---0-|
G|-2---2----2---20-|------------0----|-----0------02--0-|
D|-0----0--------0-|-----------------|-------------2----|
A|-0------4--------|---2------2------|---2-----2---0----|
E|-----------------|-0------------02-|-3-------3--------|



************************************

| x  Dead note

************************************
Suggest correction
comments
print report bad tab
2 comments total.
0 reply
Slashe 21 Jul 12, 2008 01:32 AM

It's alright, it sounds perfectly. Thank you !

0 reply
SAVE_US.DWD 36 Oct 02, 2008 11:51 AM

the intro doesnt sound right

guest
You may want to rate the tab now too:
select rating
Wanna post a correction for this tab? Suggest correction