Oops, an error
Loading. Please wait.

I Dont Want To Miss A Thing Tab

version 5
version 5

Whole song

Interactive

389 views 3 this week
no commentswrite comment
1 2 3 4 5
please rate
add to favorites
launch autoscroll
font size
0
reset
how to read this tab
guitar tuner
Autoscroll
slow
fast
+/-
esc
set tempo
stop
Help us to improve Ultimate-Guitar.com Take our survey!
×
Author
-------------------------------------------------------------------------------
                             SONG NAME - Band Name
-------------------------------------------------------------------------------
Tabbed by:romulo manzano jr
E-mail:stylishup@guitar.com

Tuning:standard

intro
e|--------2-----------0--------------2-----------------------------------------0---------|
B|------3---3-------2------------3-----3-------------3----------3----------3-------------|
G|----2------------------------4---4-----4---------0---0------2---2------0---0-----------|
D|--0------------2-----------4-------------4-----0----------0----------2-----------------|
A|-------------0-----------2-------------------------------------------------------------|
E|---------------------------------------------3----------2----------0-------------------|

verse 2x
e|--------2-----------0-------------2-----------------------------------------0----------|
B|------3---3-------2-----------3-----3------------3----------3----------3---------------|
G|----2-----------------------4---4-----4--------0---0------2---2------0---0-------------|
D|--0-------------2---------4-------------4----0----------0----------2-------------------|
A|--------------0---------2--------------------------------------------------------------|
E|-------------------------------------------3----------2----------0---------------------|

e|------------------------------------------------------------------------------|
B|------------------------------------------------------------------------------|
G|------2-----------------------------------------------------------------------|
D|----2-------------------------------------------------------------------------|
A|--0---------------------------------------------------------------------------|
E|------------------------------------------------------------------------------|

pre-chorus
e|--3---2--0--0--------------------------------------------------------------------|
B|--3---3--2--2--------------------------------------------------------------------|
G|--0---4--2--2--------------------------------------------------------------------|
D|--0---4--2--2--------------------------------------------------------------------|
A|--2---2--0--0--------------------------------------------------------------------|
E|--3------------------------------------------------------------------------------|

chorus
e|---2---0---3---3---2---0-----------------------------------------------------------|
B|---3---2---3---3---3---2-----------------------------------------------------------|
G|---2---2---0---0---4---2-----------------------------------------------------------|
D|---0---2---2---0---4---2-----------------------------------------------------------|
A|-------0---2---2---2---0-----------------------------------------------------------|
E|-----------0---3-------------------------------------------------------------------|

interlude
e|---2---0---3--------------------------------------------------------------------|
B|---3---2---3--------------------------------------------------------------------|
G|---2---2---0--------------------------------------------------------------------|
D|---0---2---0--------------------------------------------------------------------|
A|-------0---2--------------------------------------------------------------------|
E|-----------3--------------------------------------------------------------------|

verse2
e|--------2-----------0------------2----------------------------------------0------------|
B|------3---3-------2----------3-----3------------3----------3----------3----------------|
G|----2----------------------4---4-----4--------0---0------2---2------0---0--------------|
D|--0-------------2--------4-------------4----0----------0----------2--------------------|
A|--------------0--------2---------------------------------------------------------------|
E|------------------------------------------3----------2----------0----------------------|

e|---------|--------2----------0-------------2---------------------------------------|
B|---------|------3---3------2-----------3-----3-------------------------------------|
G|------2--|----2----------------------4---4-----4-----------------------------------|
D|----2----|--0------------2---------4-------------4---------------------------------|
A|--0------|-------------0---------2-------------------------------------------------|
E|---------|-------------------------------------------------------------------------|

repeat pre-chorus and chorus

bridge
e|---0---3---1---1---3---0---3---1---0--------------------------------------------------|
B|---3---3---3---1---4---1---3---3---0--------------------------------------------------|
G|---0---0---2---2---5---2---0---2---1--------------------------------------------------|
D|---2---0---0---3---5---2---0---0---2--------------------------------------------------|
A|---3---2-------3---3---0---2-------2--------------------------------------------------|
E|-------3-------1-----------3-------0--------------------------------------------------|

************************************

| /   slide up
| \   slide down
| h   hammer-on
| p   pull-off
| ~   vibrato
| +   harmonic
| x   Mute note
| b   Bend
| pb  Pre-bend
| br  Bend release
| pbr Pre-bend release
| brb Bend release bend

************************************
Suggest correction
Give kudos to tab author, rate the tab!
1 2 3 4 5
comments
print report bad tab
guest
You may want to rate the tab now too:
select rating
Please do not post tabs as comments. Select "correction" instead!