Oops, an error
Loading. Please wait.

Livin On The Edge tab

version 2
version 2

Whole song

Interactive

10,936 views 6 this week
2 commentsread comments
1 2 3 4 5
x 4
add to favorites
×
Save as Personal and add changes to this tab that will be seen only by you. Learn more ›
×
You can save this tab as Personal to edit and correct it or add notes. All changes will be seen only by you. Learn more »
launch autoscroll
font size
0
reset
how to read this tab
guitar tuner
backing track
0:00
0:00
edit
Autoscroll
slow
fast
+/-
esc
set tempo
stop
Transcribed by B M
        



Gtr I (D A D G B E) - 'Rhythm Guitar'
Gtr II (E A D G B E) - 'Lead Guitar'

 Intro
  Q=90
 4/4
  Gtr I
          |-3-|                       |-3-|
  E E +E  S S S E S S S S E   E E +E  S S S E S S S S E
|---------0h2p0---0---------|---------0h2p0---0---------|
|---3-(3)-------3---3-----3-|---3-(3)-------3---3-----3-|
|---------------------0h2---|---------------------0h2---|
|-0-------------------------|-0-------------------------|
|---------------------------|---------------------------|
|---------------------------|---------------------------|


          |-3-|                       |-3-|
  E E +E  S S S E S S S S E   E E +E  S S S E S S S S E
|---------0h2p0---0---------|---------0h2p0---0-----------|
|---3-(3)-------3---3-----3-|---3-(3)-------3---3-----3---|
|---------------------0h2---|---------------------0h2-----|
|---------------------------|-0---------------------------|
|---------------------------|-----------------------------|
|-0-------------------------|-----------------------------|


 Verse
          |-3-|                       |-3-|
  E E +E  S S S E S S S S E   E E +E  S S S E S S S S E
|---------0h2p0---0---------|---------0h2p0---0---------|
|---3-(3)-------3---3-----3-|---3-(3)-------3---3-----3-|
|---------------------0h2---|---------------------0h2---|
|---------------------------|-0-------------------------|
|---------------------------|---------------------------|
|-0-------------------------|---------------------------|


  Q.   S S Q.   S S   Q.   S S E S S E S S
|-2----2-2-2----2-2-|-2----2-2-2-x-x---------|
|-3----3-3-3----3-3-|-3----3-3-3-x-x---------|
|-4----4-4-4----4-4-|-4----4-4-4-x-x-2-x-x---|
|-4----4-4-4----4-4-|-4----4-4-4-x-x-2-x-x---|
|-------------------|----------------0-x-x---|
|-------------------|------------------------|


          |-3-|                       |-3-|
  E E +E  S S S E S S S S E   E E +E  S S S E S S S S E
|---------0h2p0---0---------|---------0h2p0---0---------|
|---3-(3)-------3---3-----3-|---3-(3)-------3---3-----3-|
|---------------------0h2---|---------------------0h2---|
|---------------------------|-0-------------------------|
|---------------------------|---------------------------|
|-0-------------------------|---------------------------|


  E S S E S S S S S S S S S S   S S S S S S   S  s H
|-2-2-2-2-2-2-2-2-2-2-2-2-2-2-|-7-7-7-7-7-7-----10------|
|-3-3-3-3-3-3-3-3-3-3-3-3-3-3-|-7-7-7-7-7-7-------------|
|-4-4-4-4-4-4-4-4-4-4-4-4-4-4-|-7-7-7-7-7-7-/11---------|
|-4-4-4-4-4-4-4-4-4-4-4-4-4-4-|-------------------------|
|-----------------------------|-------------------------|
|-----------------------------|-------------------------|


 Chorus                          Chorus
  W                               +W
|-------------------------------|---------------------------------|
|-3-----------------------------|-(3)-----------------------------|
|-2-----------------------------|-(2)-----------------------------|
|-0-----------------------------|-(0)-----------------------------|
|-0-----------------------------|-(0)-----------------------------|
|-------------------------------|---------------------------------|
|
| Gtr II
|                          ~~~                               ~~~
| E E +E  E E S     +S  a +E  E    E  E +E  E E S     +S  a +E  E
|-------------------------------|---------------------------------|
|-------------------------------|---------------------------------|
|---7-(7)---7-9b11==(9)-9r(9)-7-|-----7-(7)---7-9b11==(9)-9r(9)-7-|
|-0-------0---------------------|--0--------0---------------------|
|-------------------------------|---------------------------------|
|-------------------------------|---------------------------------|


  W                               +W
|-------------------------------|----------------------------------|
|-3-----------------------------|-(3)------------------------------|
|-2-----------------------------|-(2)------------------------------|
|-0-----------------------------|-(0)------------------------------|
|-0-----------------------------|-(0)------------------------------|
|-------------------------------|----------------------------------|
|
|                          ~~~                               ~~~
| E E +E  E E S     +S  a +E  E    E  E +E  E E S     +S  a +E  E
|-------------------------------|----------------------------------|
|-------------------------------|----------------------------------|
|---7-(7)---7-9b11==(9)-9r(9)-7-|-----7-(7)---7-9b11==(9)-9r(9)-7--|
|-0-------0---------------------|--0--------0----------------------|
|-------------------------------|----------------------------------|
|-------------------------------|----------------------------------|


  W                               W
|-------------------------------|-------------------------------|
|-------------------------------|-3-----------------------------|
|-3-----------------------------|-0-----------------------------|
|-3-----------------------------|-0-----------------------------|
|-1-----------------------------|-------------------------------|
|-------------------------------|-5-----------------------------|
|
| Gtr II
|                          ~~~                             ~~~
| E E +E  E E S     +S  a +E  E   E E +E  E E S     +S  a +E  E
|-------------------------------|-------------------------------|
|-------------------------------|-------------------------------|
|---7-(7)---7-9b11==(9)-9r(9)-7-|---7-(7)---7-9b11==(9)-9r(9)-7-|
|-0-------0---------------------|-0-------0---------------------|
|-------------------------------|-------------------------------|
|-------------------------------|-------------------------------|


  W                               +W
|-------------------------------|----------------------------------|
|-3-----------------------------|-(3)------------------------------|
|-2-----------------------------|-(2)------------------------------|
|-0-----------------------------|-(0)------------------------------|
|-0-----------------------------|-(0)------------------------------|
|-------------------------------|----------------------------------|
|
|                          ~~~                               ~~~
| E E +E  E E S     +S  a +E  E    E  E +E  E E S     +S  a +E  E
|-------------------------------|----------------------------------|
|-------------------------------|----------------------------------|
|---7-(7)---7-9b11==(9)-9r(9)-7-|-----7-(7)---7-9b11==(9)-9r(9)-7--|
|-0-------0---------------------|--0--------0----------------------|
|-------------------------------|----------------------------------|
|-------------------------------|----------------------------------|


 Verse 2
          |-3-|                       |-3-|
  E E +E  S S S E S S S S E   E E +E  S S S E S S S S E
|---------0h2p0---0---------|---------0h2p0---0---------|
|---3-(3)-------3---3-----3-|---3-(3)-------3---3-----3-|
|---------------------0h2---|---------------------0h2---|
|---------------------------|-0-------------------------|
|---------------------------|---------------------------|
|-0-------------------------|---------------------------|


  Q.   S S Q.   S S   Q.   S S E S S E S S
|-2----2-2-2----2-2-|-2----2-2-2-x-x---------|
|-3----3-3-3----3-3-|-3----3-3-3-x-x---------|
|-4----4-4-4----4-4-|-4----4-4-4-x-x-2-x-x---|
|-4----4-4-4----4-4-|-4----4-4-4-x-x-2-x-x---|
|-------------------|----------------0-x-x---|
|-------------------|------------------------|


          |-3-|                       |-3-|
  E E +E  S S S E S S S S E   E E +E  S S S E S S S S E
|---------0h2p0---0---------|---------0h2p0---0---------|
|---3-(3)-------3---3-----3-|---3-(3)-------3---3-----3-|
|---------------------0h2---|---------------------0h2---|
|---------------------------|-0-------------------------|
|---------------------------|---------------------------|
|-0-------------------------|---------------------------|


  E S S E S S S S S S S S S S   S S S S S S   S  s H
|-2-2-2-2-2-2-2-2-2-2-2-2-2-2-|-7-7-7-7-7-7-----10------|
|-3-3-3-3-3-3-3-3-3-3-3-3-3-3-|-7-7-7-7-7-7-------------|
|-4-4-4-4-4-4-4-4-4-4-4-4-4-4-|-7-7-7-7-7-7-/11---------|
|-4-4-4-4-4-4-4-4-4-4-4-4-4-4-|-------------------------|
|-----------------------------|-------------------------|
|-----------------------------|-------------------------|


  W                               +W
|-------------------------------|---------------------------------|
|-3-----------------------------|-(3)-----------------------------|
|-2-----------------------------|-(2)-----------------------------|
|-0-----------------------------|-(0)-----------------------------|
|-0-----------------------------|-(0)-----------------------------|
|-------------------------------|---------------------------------|
|
| Gtr II
|                          ~~~                               ~~~
| E E +E  E E S     +S  a +E  E    E  E +E  E E S     +S  a +E  E
|-------------------------------|---------------------------------|
|-------------------------------|---------------------------------|
|---7-(7)---7-9b11==(9)-9r(9)-7-|-----7-(7)---7-9b11==(9)-9r(9)-7-|
|-0-------0---------------------|--0--------0---------------------|
|-------------------------------|---------------------------------|
|-------------------------------|---------------------------------|


  W                               +W
|-------------------------------|----------------------------------|
|-3-----------------------------|-(3)------------------------------|
|-2-----------------------------|-(2)------------------------------|
|-0-----------------------------|-(0)------------------------------|
|-0-----------------------------|-(0)------------------------------|
|-------------------------------|----------------------------------|
|
|                          ~~~                               ~~~
| E E +E  E E S     +S  a +E  E    E  E +E  E E S     +S  a +E  E
|-------------------------------|----------------------------------|
|-------------------------------|----------------------------------|
|---7-(7)---7-9b11==(9)-9r(9)-7-|-----7-(7)---7-9b11==(9)-9r(9)-7--|
|-0-------0---------------------|--0--------0----------------------|
|-------------------------------|----------------------------------|
|-------------------------------|----------------------------------|


  W                               W
|-------------------------------|-------------------------------|
|-------------------------------|-3-----------------------------|
|-3-----------------------------|-0-----------------------------|
|-3-----------------------------|-0-----------------------------|
|-1-----------------------------|-------------------------------|
|-------------------------------|-5-----------------------------|
|
| Gtr II
|                          ~~~                             ~~~
| E E +E  E E S     +S  a +E  E   E E +E  E E S     +S  a +E  E
|-------------------------------|-------------------------------|
|-------------------------------|-------------------------------|
|---7-(7)---7-9b11==(9)-9r(9)-7-|---7-(7)---7-9b11==(9)-9r(9)-7-|
|-0-------0---------------------|-0-------0---------------------|
|-------------------------------|-------------------------------|
|-------------------------------|-------------------------------|


  W                               +W
|-------------------------------|----------------------------------|
|-3-----------------------------|-(3)------------------------------|
|-2-----------------------------|-(2)------------------------------|
|-0-----------------------------|-(0)------------------------------|
|-0-----------------------------|-(0)------------------------------|
|-------------------------------|----------------------------------|
|
|                          ~~~                               ~~~
| E E +E  E E S     +S  a +E  E    E  E +E  E E S     +S  a +E  E
|-------------------------------|----------------------------------|
|-------------------------------|----------------------------------|
|---7-(7)---7-9b11==(9)-9r(9)-7-|-----7-(7)---7-9b11==(9)-9r(9)-7--|
|-0-------0---------------------|--0--------0----------------------|
|-------------------------------|----------------------------------|
|-------------------------------|----------------------------------|


  E E E E S S S S +S  S S S   E E E E S S S S +S  S S S
|---------------------------|---------------------------|
|---------------------------|---------------------------|
|---------------2-(2)-------|---------------2-(2)-------|
|---4---4-4s2s4-2-(2)-4s2s4-|---4---4-4s2s4-2-(2)-4s2---|
|---4---4-4s2s4-0-(0)-4s2s4-|---4---4-4s2s4-0-(0)-4s2---|
|---4---4-4s2s4-------4s2s4-|---4---4-4s2s4-------4s2---|
|
| Gtr II
|   W                         W
|---------------------------|---------------------------|
|---------------------------|---------------------------|
|---------------------------|---------------------------|
|---------------------------|---------------------------|
|---------------------------|---------------------------|
|---------------------------|---------------------------|


  E  E E E   +H        +W
|--------------------|------------------------------------------|
|--------------------|------------------------------------------|
|----4---4---(4)-----|-(4)--------------------------------------|
|----4---4---(4)-----|-(4)--------------------------------------|
|----2---2---(2)-----|-(2)--------------------------------------|
|--------------------|------------------------------------------|
|
|                 ~
| Q.     E   +Q   Q     S  S S    +S  E S S     +E  E S S E
|--------------------|------------------------------------------|
|--------------------|-------9b10-(9)r9---9b10--(9)r9-7h9-7b7.5-|
|--------7b9-(7)--7--|-----7-9b11-(9)r9-7-9b10==(9)r9-7h9-7b7.5-|
|--------------------|--9---------------------------------------|
|--------------------|------------------------------------------|
|--------------------|------------------------------------------|


  E E E E S S S S +S  S S S   E E E E S S S S +S  S S S
|---------------------------|---------------------------|
|---------------------------|---------------------------|
|---------------2-(2)-------|---------------2-(2)-------|
|---4---4-4s2s4-2-(2)-4s2s4-|---4---4-4s2s4-2-(2)-4s2---|
|---4---4-4s2s4-0-(0)-4s2s4-|---4---4-4s2s4-0-(0)-4s2---|
|---4---4-4s2s4-------4s2s4-|---4---4-4s2s4-------4s2---|
|
|   Gtr II
| W                           W
|---------------------------|---------------------------|
|---------------------------|---------------------------|
|---------------------------|---------------------------|
|---------------------------|---------------------------|
|---------------------------|---------------------------|
|---------------------------|---------------------------|


  E E E E H        E E E E H
|----------------|-----------------|
|---3---3-3------|-----------------|
|---0---0-0------|---2---2-2-------|
|---0---0-0------|---2---2-2-------|
|----------------|---0---0-0-------|
|---5---5-5------|-----------------|
|
| Q   Q   E E Q    E Q   Q   E Q
|-----3-----3-3--|---5-------5-5---|
|-----3-----3-3--|---5-------5-5---|
|----------------|-----------------|
|----------------|-----------------|
|----------------|-----------------|
|----------------|-----------------|


  W                       +W
|-----------------------|----------------------------------------------|
|-----------------------|----------------------------------------------|
|-3---------------------|-(3)------------------------------------------|
|-3---------------------|-(3)------------------------------------------|
|-1---------------------|-(1)------------------------------------------|
|-----------------------|----------------------------------------------|
|
| Gtr II
| Q.   S S E S S E S  S    E   S  S  S  S  S  S  S  S  S  S  S  S  +E
|----------6-----8------|-10--12p10----12p10----12p10----12p10---------|
|-----------------------|----------------------------------------------|
|------5s7---7s9---9s10-|-----------10-------10-------10-------10-(10)-|
|-----------------------|----------------------------------------------|
|-----------------------|----------------------------------------------|
|-----------------------|----------------------------------------------|


    W                                +W
|---------------------------------|-------------|
|---3-----------------------------|--(3)--------|
|---2-----------------------------|--(2)--------|
|---0-----------------------------|--(0)--------|
|---0-----------------------------|--(0)--------|
|---------------------------------|-------------|
|
| Gtr II
|                                     ~~~~
|   E   E   E   E   E  S  S  +Q      +W
|---------------------------------|-------------|
|---------------------------------|-------------|
|-/14-/14-/14-/14-/14s12s11-(11)--|-(11)--------|
|---------------------------------|-------------|
|---------------------------------|-------------|
|---------------------------------|-------------|


    W                                +W
|---------------------------------|---------|
|---3-----------------------------|--(3)----|
|---2-----------------------------|--(2)----|
|---0-----------------------------|--(0)----|
|---0-----------------------------|--(0)----|
|---------------------------------|---------|
|
|                                     ~~~~
|   E   E   E   E   E  S  S  +Q      +W
|---------------------------------|---------|
|---------------------------------|---------|
|-/14-/14-/14-/14-/14s12s10-(10)--|-(10)----|
|---------------------------------|---------|
|---------------------------------|---------|
|---------------------------------|---------|


    W                               W
|---------------------------------|-----------------|
|---------------------------------|-3---------------|
|---3-----------------------------|-0---------------|
|---3-----------------------------|-0---------------|
|---1-----------------------------|-----------------|
|---------------------------------|-5---------------|
|
| Gtr II
|                                           ~~~
|   E   E   E   E   E  S  S  +Q     Q.   E  Q.    E
|---------------------------------|-----------------|
|---------------------------------|-----------------|
|-/14-/14-/14-/14-/14s12s10-(10)--|-9----9S15----14-|
|---------------------------------|-----------------|
|---------------------------------|-----------------|
|---------------------------------|-----------------|


   W                        +W
|-------------------------|-------------------------------------|
|--3----------------------|-(3)---------------------------------|
|--2----------------------|-(2)---------------------------------|
|--0----------------------|-(0)---------------------------------|
|--0----------------------|-(0)---------------------------------|
|-------------------------|-------------------------------------|
|
|                     ~~~~                ~~~~~~~~~PM        ~~
|           |--3--|
|  H     E  S  S  S  +Q      S  S  S  S   Q        S   E  S  Q
|-14----14-14h17p14-(14)--|------------------------0------------|
|-------------------------|-18s17s15----/18pb18.5----/18s17s15--|
|-------------------------|----------16-------------------------|
|-------------------------|-------------------------------------|
|-------------------------|-------------------------------------|
|-------------------------|-------------------------------------|


    W                        W                        W
|------------------------|------------------------|--------------------------|
|------------------------|---3--------------------|--------------------------|
|---3--------------------|---0--------------------|--------------------------|
|---3--------------------|---0--------------------|---3----------------------|
|---1--------------------|------------------------|---3----------------------|
|------------------------|---5--------------------|---3----------------------|
|
| Gtr II
|               ~~                       ~~                       ~~
|   Q   +E   S  H    +S      Q   +E   S  H    +S      Q   +E   S  Q  +S   Q
|------------------------|------------------------|--------------------------|
|-/17--(17)S15-15---(15)-|-/13--(13)S12-12---(12)-|-/11--(11)S10-10-(10)-----|
|------------------------|------------------------|----------------------11s=|
|------------------------|------------------------|--------------------------|
|------------------------|------------------------|--------------------------|
|------------------------|------------------------|--------------------------|


   W              +W
|---------------|---------------------------------------------------|
|--3------------|-(3)-----------------------------------------------|
|--2------------|-(2)-----------------------------------------------|
|--0------------|-(0)-----------------------------------------------|
|--0------------|-(0)-----------------------------------------------|
|---------------|---------------------------------------------------|
|
|      ~~                                              ~~       ~~
|  Q   Q   H       S     S  S     S  S     S  S     S  E  S  S  Q
|---------14----|-------14-------14-------14-------14-17-14----14---|
|---------------|-17b19----17b19----17b19----17b19----------17------|
|-12s=14--------|---------------------------------------------------|
|---------------|---------------------------------------------------|
|---------------|---------------------------------------------------|
|---------------|---------------------------------------------------|


  E E E E S S S S +S  S S S
|---------------------------|
|---------------------------|
|---------------2-(2)-------|
|---4---4-4s2s4-2-(2)-4s2s4-|
|---4---4-4s2s4-0-(0)-4s2s4-|
|---4---4-4s2s4-------4s2s4-|


  E E E E S S S S +S  S S S   E E E E +H       +W
|---------------------------|----------------|--------|
|---------------------------|----------------|--------|
|---------------2-(2)-------|---4---4-(4)----|-(4)----|
|---4---4-4s2s4-2-(2)-4s2---|---4---4-(4)----|-(4)----|
|---4---4-4s2s4-0-(0)-4s2---|---2---2-(2)----|-(2)----|
|---4---4-4s2s4-------4s2---|----------------|--------|


  E E E E S S S S +S  S S S   E E E E S S S S +S  S S S
|---------------------------|---------------------------|
|---------------------------|---------------------------|
|---------------2-(2)-------|---------------2-(2)-------|
|---4---4-4s2s4-2-(2)-4s2s4-|---4---4-4s2s4-2-(2)-4s2---|
|---4---4-4s2s4-0-(0)-4s2s4-|---4---4-4s2s4-0-(0)-4s2---|
|---4---4-4s2s4-------4s2s4-|---4---4-4s2s4-------4s2---|
|
| Gtr II
| W                           W
|---------------------------|---------------------------|
|---------------------------|---------------------------|
|---------------------------|---------------------------|
|---------------------------|---------------------------|
|---------------------------|---------------------------|
|---------------------------|---------------------------|


  E E E E H        E E E E H
|----------------|-----------------|
|---3---3-3------|-----------------|
|---0---0-0------|---2---2-2-------|
|---0---0-0------|---2---2-2-------|
|----------------|---0---0-0-------|
|---5---5-5------|-----------------|
|
| Q   Q   E E Q    E Q   Q   E Q
|-----3-----3-3--|---5-------5-5---|
|-----3-----3-3--|---5-------5-5---|
|----------------|-----------------|
|----------------|-----------------|
|----------------|-----------------|
|----------------|-----------------|


  W                       +W
|-----------------------|----------------------------------------------|
|-----------------------|----------------------------------------------|
|-3---------------------|-(3)------------------------------------------|
|-3---------------------|-(3)------------------------------------------|
|-1---------------------|-(1)------------------------------------------|
|-----------------------|----------------------------------------------|
|
| Gtr II
| Q.   S S E S S E S  S    E   S  S  S  S  S  S  S  S  S  S  S  S  +E
|----------6-----8------|-10--12p10----12p10----12p10----12p10---------|
|-----------------------|----------------------------------------------|
|------5s7---7s9---9s10-|-----------10-------10-------10-------10-(10)-|
|-----------------------|----------------------------------------------|
|-----------------------|----------------------------------------------|
|-----------------------|----------------------------------------------|


  Q  E E E E E E   Q  E E E E E E
|----------------|----------------|
|-3----3---3---3-|-3----3---3---3-|
|-2------2-------|-2------2-------|
|-0--0-------0---|-0--0-------0---|
|-0--------------|-0--------------|
|----------------|----------------|
|
| W                W
|----------------|----------------|
|----------------|----------------|
|----------------|----------------|
|----------------|----------------|
|----------------|----------------|
|----------------|----------------|


  Q   Q   Q    Q      Q    E.   s H
|-------------------|-----------2------|
|-3---3---3----3----|-3----3-----------|
|-4---4---4----4----|-4----4-----------|
|-4---4---4----4----|-4----4-----------|
|-2---2---2----2----|-2----2-----------|
|-------------------|------------------|


  Wx3
|--------|
|--------|
|--------|
|--------|
|--------|
|--------|


  W                               +W
|-------------------------------|---------------------------------|
|-3-----------------------------|-(3)-----------------------------|
|-2-----------------------------|-(2)-----------------------------|
|-0-----------------------------|-(0)-----------------------------|
|-0-----------------------------|-(0)-----------------------------|
|-------------------------------|---------------------------------|
|
| Gtr II
|                          ~~~                               ~~~
| E E +E  E E S     +S  a +E  E    E  E +E  E E S     +S  a +E  E
|-------------------------------|---------------------------------|
|-------------------------------|---------------------------------|
|---7-(7)---7-9b11==(9)-9r(9)-7-|-----7-(7)---7-9b11==(9)-9r(9)-7-|
|-0-------0---------------------|--0--------0---------------------|
|-------------------------------|---------------------------------|
|-------------------------------|---------------------------------|


  W                               +W
|-------------------------------|----------------------------------|
|-3-----------------------------|-(3)------------------------------|
|-2-----------------------------|-(2)------------------------------|
|-0-----------------------------|-(0)------------------------------|
|-0-----------------------------|-(0)------------------------------|
|-------------------------------|----------------------------------|
|
|                          ~~~                               ~~~
| E E +E  E E S     +S  a +E  E    E  E +E  E E S     +S  a +E  E
|-------------------------------|----------------------------------|
|-------------------------------|----------------------------------|
|---7-(7)---7-9b11==(9)-9r(9)-7-|-----7-(7)---7-9b11==(9)-9r(9)-7--|
|-0-------0---------------------|--0--------0----------------------|
|-------------------------------|----------------------------------|
|-------------------------------|----------------------------------|


  W                               W
|-------------------------------|-------------------------------|
|-------------------------------|-3-----------------------------|
|-3-----------------------------|-0-----------------------------|
|-3-----------------------------|-0-----------------------------|
|-1-----------------------------|-------------------------------|
|-------------------------------|-5-----------------------------|
|
| Gtr II
|                          ~~~                             ~~~
| E E +E  E E S     +S  a +E  E   E E +E  E E S     +S  a +E  E
|-------------------------------|-------------------------------|
|-------------------------------|-------------------------------|
|---7-(7)---7-9b11==(9)-9r(9)-7-|---7-(7)---7-9b11==(9)-9r(9)-7-|
|-0-------0---------------------|-0-------0---------------------|
|-------------------------------|-------------------------------|
|-------------------------------|-------------------------------|


  W                               +W
|-------------------------------|----------------------------------|
|-3-----------------------------|-(3)------------------------------|
|-2-----------------------------|-(2)------------------------------|
|-0-----------------------------|-(0)------------------------------|
|-0-----------------------------|-(0)------------------------------|
|-------------------------------|----------------------------------|
|
|                          ~~~                               ~~~
| E E +E  E E S     +S  a +E  E    E  E +E  E E S     +S  a +E  E
|-------------------------------|----------------------------------|
|-------------------------------|----------------------------------|
|---7-(7)---7-9b11==(9)-9r(9)-7-|-----7-(7)---7-9b11==(9)-9r(9)-7--|
|-0-------0---------------------|--0--------0----------------------|
|-------------------------------|----------------------------------|
|-------------------------------|----------------------------------|


  W                               W
|-------------------------------|-------------------------------|
|-------------------------------|-------------------------------|
|-3-----------------------------|-2-----------------------------|
|-3-----------------------------|-2-----------------------------|
|-1-----------------------------|-0-----------------------------|
|-------------------------------|-------------------------------|
|
| Gtr II
|                          ~~~                             ~~~
| E E +E  E E S     +S  a +E  E   E E +E  E E S     +S  a +E  E
|-------------------------------|-------------------------------|
|-------------------------------|-------------------------------|
|---7-(7)---7-9b11==(9)-9r(9)-7-|---7-(7)---7-9b11==(9)-9r(9)-7-|
|-0-------0---------------------|-0-------0---------------------|
|-------------------------------|-------------------------------|
|-------------------------------|-------------------------------|


  W                               W
|-------------------------------|--------------------------------|
|-3-----------------------------|--------------------------------|
|-0-----------------------------|--------------------------------|
|-0-----------------------------|-3------------------------------|
|-------------------------------|-3------------------------------|
|-5-----------------------------|-3------------------------------|
|
|                          ~~~                             ~~~
| E E +E  E E S     +S  a +E  E   E E +E  E E S     +S  a +E  E
|-------------------------------|--------------------------------|
|-------------------------------|--------------------------------|
|---7-(7)---7-9b11==(9)-9r(9)-7-|---7-(7)---7-9b11==(9)-9r(9)-7--|
|-0-------0---------------------|-0-------0----------------------|
|-------------------------------|--------------------------------|
|-------------------------------|--------------------------------|


  W                               W
|-------------------------------|-------------------------------|
|-------------------------------|-------------------------------|
|-------------------------------|-------------------------------|
|-2-----------------------------|-1-----------------------------|
|-2-----------------------------|-1-----------------------------|
|-2-----------------------------|-1-----------------------------|
|
| Gtr II
|                          ~~~                             ~~~
| E E +E  E E S     +S  a +E  E   E E +E  E E S     +S  a +E  E
|-------------------------------|-------------------------------|
|-------------------------------|-------------------------------|
|---7-(7)---7-9b11==(9)-9r(9)-7-|---7-(7)---7-9b11==(9)-9r(9)-7-|
|-0-------0---------------------|-0-------0---------------------|
|-------------------------------|-------------------------------|
|-------------------------------|-------------------------------|


  W                               W
|-------------------------------|--------------------------------|
|-------------------------------|--------------------------------|
|-------------------------------|--------------------------------|
|-1-----------------------------|-0------------------------------|
|-1-----------------------------|-0------------------------------|
|-1-----------------------------|-0------------------------------|
|
|                          ~~~                             ~~~
| E E +E  E E S     +S  a +E  E   E E +E  E E S     +S  a +E  E
|-------------------------------|--------------------------------|
|-------------------------------|--------------------------------|
|---7-(7)---7-9b11==(9)-9r(9)-7-|---7-(7)---7-9b11==(9)-9r(9)-7--|
|-0-------0---------------------|-0-------0----------------------|
|-------------------------------|--------------------------------|
|-------------------------------|--------------------------------|


  +W                                +W
|---------------------------------|---------------------------------|
|---------------------------------|---------------------------------|
|---------------------------------|---------------------------------|
|-(0)-----------------------------|-(0)-----------------------------|
|-(0)-----------------------------|-(0)-----------------------------|
|-(0)-----------------------------|-(0)-----------------------------|
|
| Gtr II
|                            ~~~                               ~~~
|  E  E +E  E E S     +S  a +E  E    E  E +E  E E S     +S  a +E  E
|---------------------------------|---------------------------------|
|---------------------------------|---------------------------------|
|-----7-(7)---7-9b11==(9)-9r(9)-7-|-----7-(7)---7-9b11==(9)-9r(9)-7-|
|--0--------0---------------------|--0--------0---------------------|
|---------------------------------|---------------------------------|
|---------------------------------|---------------------------------|


  +W                                +W
|---------------------------------|----------------------------------|
|---------------------------------|----------------------------------|
|---------------------------------|----------------------------------|
|-(0)-----------------------------|-(0)------------------------------|
|-(0)-----------------------------|-(0)------------------------------|
|-(0)-----------------------------|-(0)------------------------------|
|
|                            ~~~                               ~~~
|  E  E +E  E E S     +S  a +E  E    E  E +E  E E S     +S  a +E  E
|---------------------------------|----------------------------------|
|---------------------------------|----------------------------------|
|-----7-(7)---7-9b11==(9)-9r(9)-7-|-----7-(7)---7-9b11==(9)-9r(9)-7--|
|--0--------0---------------------|--0--------0----------------------|
|---------------------------------|----------------------------------|
|---------------------------------|----------------------------------|


  W                               H.                        Q
|-------------------------------|--------------------------------|
|-------------------------------|-3------------------------------|
|-3-----------------------------|-0------------------------------|
|-3-----------------------------|-0-------------------------3----|
|-1-----------------------------|---------------------------3----|
|-------------------------------|-5-------------------------3----|
|
| Gtr II
|                          ~~~                              ~~~
| E E +E  E E S     +S  a +E  E   E  E +E  E E S     +S  a +E  E
|-------------------------------|--------------------------------|
|-------------------------------|--------------------------------|
|---7-(7)---7-9b11==(9)-9r(9)-7-|----7-(7)---7-9b11==(9)-9r(9)-7-|
|-0-------0---------------------|-0--------0---------------------|
|-------------------------------|--------------------------------|
|-------------------------------|--------------------------------|


  W                               +W
|-------------------------------|----------------------------------|
|-------------------------------|----------------------------------|
|-------------------------------|----------------------------------|
|-0-----------------------------|-(0)------------------------------|
|-0-----------------------------|-(0)------------------------------|
|-0-----------------------------|-(0)------------------------------|
|
|                          ~~~                               ~~~
| E E +E  E E S     +S  a +E  E    E  E +E  E E S     +S  a +E  E
|-------------------------------|----------------------------------|
|-------------------------------|----------------------------------|
|---7-(7)---7-9b11==(9)-9r(9)-7-|-----7-(7)---7-9b11==(9)-9r(9)-7--|
|-0-------0---------------------|--0--------0----------------------|
|-------------------------------|----------------------------------|
|-------------------------------|----------------------------------|


  W                               H.                        Q
|-------------------------------|--------------------------------|
|-------------------------------|-3------------------------------|
|-3-----------------------------|-0------------------------------|
|-3-----------------------------|-0-------------------------3----|
|-1-----------------------------|-2-------------------------3----|
|-------------------------------|---------------------------3----|
|
| Gtr II
|                          ~~~                              ~~~
| E E +E  E E S     +S  a +E  E   E  E +E  E E S     +S  a +E  E
|-------------------------------|--------------------------------|
|-------------------------------|--------------------------------|
|---7-(7)---7-9b11==(9)-9r(9)-7-|----7-(7)---7-9b11==(9)-9r(9)-7-|
|-0-------0---------------------|-0--------0---------------------|
|-------------------------------|--------------------------------|
|-------------------------------|--------------------------------|


  W                               +W
|-------------------------------|----------------------------------|
|-------------------------------|----------------------------------|
|-------------------------------|----------------------------------|
|-0-----------------------------|-(0)------------------------------|
|-0-----------------------------|-(0)------------------------------|
|-0-----------------------------|-(0)------------------------------|
|
|                          ~~~                               ~~~
| E E +E  E E S     +S  a +E  E    E  E +E  E E S     +S  a +E  E
|-------------------------------|----------------------------------|
|-------------------------------|----------------------------------|
|---7-(7)---7-9b11==(9)-9r(9)-7-|-----7-(7)---7-9b11==(9)-9r(9)-7--|
|-0-------0---------------------|--0--------0----------------------|
|-------------------------------|----------------------------------|
|-------------------------------|----------------------------------|


  W                               W
|-------------------------------|-------------------------------|
|-------------------------------|-------------------------------|
|-3-----------------------------|-2-----------------------------|
|-3-----------------------------|-2-----------------------------|
|-1-----------------------------|-0-----------------------------|
|-------------------------------|-------------------------------|
|
| Gtr II
|                          ~~~                             ~~~
| E E +E  E E S     +S  a +E  E   E E +E  E E S     +S  a +E  E
|-------------------------------|-------------------------------|
|-------------------------------|-------------------------------|
|---7-(7)---7-9b11==(9)-9r(9)-7-|---7-(7)---7-9b11==(9)-9r(9)-7-|
|-0-------0---------------------|-0-------0---------------------|
|-------------------------------|-------------------------------|
|-------------------------------|-------------------------------|


  W                               W
|-------------------------------|--------------------------------|
|-3-----------------------------|--------------------------------|
|-0-----------------------------|--------------------------------|
|-0-----------------------------|-3------------------------------|
|-------------------------------|-3------------------------------|
|-5-----------------------------|-3------------------------------|
|
|                          ~~~                             ~~~
| E E +E  E E S     +S  a +E  E   E E +E  E E S     +S  a +E  E
|-------------------------------|--------------------------------|
|-------------------------------|--------------------------------|
|---7-(7)---7-9b11==(9)-9r(9)-7-|---7-(7)---7-9b11==(9)-9r(9)-7--|
|-0-------0---------------------|-0-------0----------------------|
|-------------------------------|--------------------------------|
|-------------------------------|--------------------------------|


  W                               W
|-------------------------------|-------------------------------|
|-------------------------------|-------------------------------|
|-------------------------------|-------------------------------|
|-2-----------------------------|-1-----------------------------|
|-2-----------------------------|-1-----------------------------|
|-2-----------------------------|-1-----------------------------|
|
| Gtr II
|                          ~~~                             ~~~
| E E +E  E E S     +S  a +E  E   E E +E  E E S     +S  a +E  E
|-------------------------------|-------------------------------|
|-------------------------------|-------------------------------|
|---7-(7)---7-9b11==(9)-9r(9)-7-|---7-(7)---7-9b11==(9)-9r(9)-7-|
|-0-------0---------------------|-0-------0---------------------|
|-------------------------------|-------------------------------|
|-------------------------------|-------------------------------|


  W                               W
|-------------------------------|--------------------------------|
|-------------------------------|--------------------------------|
|-------------------------------|--------------------------------|
|-1-----------------------------|-0------------------------------|
|-1-----------------------------|-0------------------------------|
|-1-----------------------------|-0------------------------------|
|
|                          ~~~                             ~~~
| E E +E  E E S     +S  a +E  E   E E +E  E E S     +S  a +E  E
|-------------------------------|--------------------------------|
|-------------------------------|--------------------------------|
|---7-(7)---7-9b11==(9)-9r(9)-7-|---7-(7)---7-9b11==(9)-9r(9)-7--|
|-0-------0---------------------|-0-------0----------------------|
|-------------------------------|--------------------------------|
|-------------------------------|--------------------------------|


  W
|------*|
|------*|
|------*|
|-0----*|
|-0----*|
|-0----*|
|
| Gtr II
| W
|------*|
|------*|
|-7----*|
|------*|
|------*|
|------*|



Duration Legend
---------------
W - whole; H - half; Q - quarter; E - 8th; S - 16th; T - 32nd; X - 64th; a - acciaccatura
+ - note tied to previous; . - note dotted; .. - note double dotted
Uncapitalized letters represent notes that are staccato (1/2 duration)
Irregular groupings are notated above the duration line
Duration letters will always appear directly above the note/fret number it represents the
duration for.  Duration letters with no fret number below them represent rests.  Multi-
bar rests are notated in the form Wxn, where n is the number of bars to rest for.  Low
melody durations appear below the staff

Tablature Legend
----------------
 h   - hammer-on
 p   - pull-off
 b   - bend
 pb  - pre-bend
 r   - bend release (if no number after the r, then release immediately)
 /\  - slide into or out of (from/to "nowhere")
 s   - legato slide
 S   - shift slide
 - natural harmonic
[n]  - artificial harmonic
n(n) - tapped harmonic
 ~   - vibrato
 tr  - trill
 T   - tap
 TP  - trem. picking
 PM  - palm muting
\n/  - tremolo bar dip; n = amount to dip
 \n  - tremolo bar down
 n/  - tremolo bar up
/n\  - tremolo bar inverted dip
 =   - hold bend; also acts as connecting device for hammers/pulls
 <> - volume swell (louder/softer)
 x   - on rhythm slash represents muted slash
 o   - on rhythm slash represents single note slash

Misc Legend
-----------
 |  - bar
||  - double bar
||o - repeat start
o|| - repeat end
*|  - double bar (ending)
 :  - bar (freetime)
 $  - Segno
 &  - Coda
Tempo markers -  = BPM(8/16=s8/s16), where s8 = swing 8ths, s16 = swing 16ths

Suggest correction
Creating personal tab
Creating personal tab
You can edit any tab online and save it as your Personal.

You can edit, replace or remove any tab part or add personal notes – all changes will be seen only by you.

Personal tabs can be accessed anytime from any device, even offline.
Learn more »
comments
print report bad tab
2 comments total.
+1 reply
classicrockboy 213 Aug 19, 2008 05:14 PM

great tab dude

+1 reply
Nukaateq 10 Apr 17, 2009 02:45 PM

What a GREAT tab! very good

guest
You may want to rate the tab now too:
select rating
Wanna post a correction for this tab? Suggest correction