Oops, an error
Loading. Please wait.

No More No More Tab

version 1
version 1

Solo

Whole song

Interactive

4,671 views 1 this week
no commentswrite comment
1 2 3 4 5
1 last vote to show rating
add to favorites
×
Save as Personal and add changes to this tab that will be seen only by you. Learn more ›
×
You can save this tab as Personal to edit and correct it or add notes. All changes will be seen only by you. Learn more »
save as personal
new!
launch autoscroll
font size
0
reset
how to read this tab
guitar tuner
Autoscroll
slow
fast
+/-
esc
set tempo
stop
Author
Difficulty
Tuning
intermediate
E A D G B E
   e|--7--7-7---7-7---7-7--7-7-7---7-7-------------------------7---------7---7----|
   B|--7--7-7---7-7---7-7--7-7-7---7-7-------------------------7---------7---7-7--|
   G|-----------------------------------9b--rp7-7-----------------9b--r-----------|
   D|---------------------------------------------9--(9p7-------------------------|
   A|-----------------------------------------------------h9)---------------------|
   E|-----------------------------------------------------------------------------|


   e|-------------------------------7----------------------------------------------------------|
   B|--10b-10--7----------7-h9--b------10p7--7--------------------------------------------7p0--|
   G|-------------9b--r-------------------------7b-r-----------7-----------7--7-7--------------|
   D|-------------------------------------------------9/---\9-----9/--\9-9--------9/--\9-------|
   A|------------------------------------------------------------------------------------------|
   E|------------------------------------------------------------------------------------------|


   e|--------------------7p0-----------------7--9~~~~~~~~~~------------10b--r10--7|
   B|--------------10b-r-----7p0-7p0---------7--------------10p7---7-7------------|
   G|-7----7b-r----------------------7---------------------------9----------------|
   D|----9------9----------------------9-(9)--------------------------------------|
   A|-----------------------------------------------------------------------------|
   E|-----------------------------------------------------------------------------|


   e|-------------------------------9b-r-7----------------------------------------|
   B|-10p7--------------------7-9-7---------9/-------7---9b-r-7-9-----------------|
   G|------9-9b-r-7------7\9---------------------7\9-----9b-r-7-9-(7)----9-7------|
   D|---------------9-9------------------------------------------------9-----9-9--|
   A|-----------------------------------------------------------------------------|
   E|-----------------------------------------------------------------------------|


   e|-----------------------------------------------------------------------------|
   B|--9-7---9-7-----9-7---9-7-------9-7---9-7-----9-7---9-7-----9-7---9-7---9-7--|
   G|--9-7---9-7-7---9-7---9-7-------9-7---9-7-----9-7---9-7-----9-7---9-7---9-7--|
   D|------9-------9-----9-----9-9-9-----9-----9-9-----9-----9-9-----9-----9------|
   A|-----------------------------------------------------------------------------|
   E|-----------------------------------------------------------------------------|


   e|-----------------------------------------------------------------------------|
   B|---9-7---9-7---9-7---9-7---9-7---9-7---9-7---9-7---9-7---9-7-----------------|
   G|---9-7---9-7---9-7---9-7---9-7---9-7---9-7---9-7---9-7---9-7-----------------|
   D|-9-----9-----9-----9-----9-----9-----9-----9-----9-----9-----9-p7h9p7h9\12---|
   A|-----------------------------------------------------------------------------|
   E|-----------------------------------------------------------------------------|


   e|-----------------------7-7----------------7---9b-7---------------------------|
   B|-12b-r10--9-7----------7----9b--rp7----9b-7---9b-7-----------------7------7--|
   G|-12b-r10--9-7-----9b-r------9b--rp7----9b---9------9b-r---7-7-9b-r---9b-r----|
   D|---------------9--------------------p9------------------9--------------------|
   A|-----------------------------------------------------------------------------|
   E|-----------------------------------------------------------------------------|


   e|------------------------------------------------------------7----------------|
   B|------7------7------7------7------7------7--------9-----------10p7--------7--|
   G|-9b-r---9b-r---9b-r---9b-r---9b-r---9b-r---9b--r--9p7--------------9p7-9b-r-7|
   D|-------------------------------------------------------9-9-------------------|
   A|-----------------------------------------------------------------------------|
   E|-----------------------------------------------------------------------------|


   e|----7-7-x-x-x-x-7-7-x-x-x-x-7-7-x-x-7-7-7-x-x-x-x-7---x-x-7-7-7-----7---7---7|
   B|----7-7-x-x-x-x-7-7-x-x-x-x-7-7-x-x-7-7-7-x-x-x-x-7-7-x-x-7-7-7-----7---7---7|
   G|----7-7-x-x-x-x-----x-x-x-x-7-7-x-x-----7-x-x-x-x---7-----------7-7---7---7--|
   D|-9---------------------------------------------------------------------------|
   A|-----------------------------------------------------------------------------|
   E|-----------------------------------------------------------------------------|


   e|-9b--(7)-------------------------------------------------------10b--7-----7--|
   B|-------------------------------------------------9---7-10---9---------10b-7--|
   G|-------------------------------------------9---7---9------9------------------|
   D|----------7\9-9-----9p7---7---6--9---7---6---9-------------------------------|
   A|------------------9-----9---9------9---9-------------------------------------|
   E|-----------------------------------------------------------------------------|


   e|------------------------------------12b------r-12b----r-12b--rp10--------12b-|
   B|-10p7-10p7-7h9-7h9p7------12p10-----------------------------------12--12-----|
   G|---------------------7\10-------12-------------------------------------------|
   D|-----------------------------------------------------------------------------|
   A|-----------------------------------------------------------------------------|
   E|-----------------------------------------------------------------------------|


   e|--rp10----12-12b--------r-10------------14b------14---14--14r/---7-----------|
   B|-------12---------------------12-12--12---------(14)-------------7--9b-rp7---|
   G|-----------------------------------------------------------------7--9b-rp7---|
   D|---------------------------------------------------------------------------9-|
   A|-----------------------------------------------------------------------------|
   E|-----------------------------------------------------------------------------|

                                                                           P.H.
   e|-----------------------------------------------------------------------------|
   B|-9b-rp7----9b-r---7----------------------------------------------------------|
   G|-9b-rp7----9b-r---7----------------------------------------7p5---7p5---4-----|
   D|--------9-------9---9-7-9-7~~~~--------------------------7-----7-----7---7---|
   A|--------------------------------9/-------5-7-7b-r-5-7/-----------------------|
   E|-------------------------------------5\7-------------------------------------|

     P.H.
   e|---------------------------------------------------------------------------5-|
   B|---------------------------------------------------------------------------5-|
   G|-7p4---7p4---7p4---7p4---7p4---7p4---7p4-4-4b-r--7b-r--4-7-7-6-4-7-4---7b----|
   D|-----7-----7-----7-----7-----7-----7-----------------------------------------|
   A|-----------------------------------------------------------------------------|
   E|-----------------------------------------------------------------------------|


   e|--5b--r--7--------------------|
   B|---------7--------------------|
   G|------------------------------|
   D|------------------------------|
   A|------------------------------|
   E|------------------------------|
Suggest correction
Give kudos to tab author, rate the tab!
1 2 3 4 5
comments
print report bad tab
guest
You may want to rate the tab now too:
select rating
Wanna post a correction for this tab? Suggest correction