Oops, an error
Loading. Please wait.

No More No More Tab

version 2
version 2

Whole song

Interactive

3,509 views 9 this week
1 commentread comment
1 2 3 4 5
worth learning
x 5
add to favorites
launch autoscroll
font size
0
reset
how to read this tab
guitar tuner
Tab Pro tools
  • play this tab
  • loop segment
  • change instrument
  • show fretboard
  • metronome
×
Best way to learn
"No More No More"
Autoscroll
slow
fast
+/-
esc
set tempo
stop
Difficulty
novice
Aerosmith
No More, No More
Album: Toys In The Attic

Tuning:EBEEBe (trust me on this)

Repeat this 3 times BUT.......
riff 1
e-----------------------0------------------|
B-----------------------0------------------|
E-----------------------0------------------|
E-----------0--0--0--0---------------------|
B----------0--0--0--0---------77--9--7--9--|
E---------5--4--5--4----------77--7--7--7--|

.......on the 3rd repeat, leave out the 77--9--7--9-|
                                        77--7--7--7-|

then....
riff 2
e---------------------------------|
B---------------------------------|
E---------------------------------|
E---------------------------------|
B-------55--77--5-7--4-555-4-5----|
E-------55--77--5-7--4-555-4-5----|

Then theres a little riff after this when Steven sings "Blood stains the ivories....." 
i'm not sure of

then while Steven & Joe sing "No More, No More"
Joe plays....

riff 3
77--9--7--9-|
77--7--7--7-|
3 times

then the intro(riff 1) once

then riff 2

then riff 3 while they sing "No More....."

If you can figure out the riff when Steven sings "Blood stains the ivories....." then you're all set.

Now the outro(back into standard EADGBe tuning for both Brad and Joe.

Brad Whitford plays this.....(while Brad is playing this, Joe is offstage grabbing his Les Paul)

e|-----------------|-----------------|-----------------|-----------------|
B|-----------------|-----------------|-----------------|-----------------|
G|-----------------|-----------------|-----------9-----|-----------------|
D|-7---9-9---7-9---|-6---7-7---6-7-6-|-----------9-----|-----9-9---9-9---|
A|-7---9-9---7-9---|-6---7-7---6-7-6-|-----------7-----|-----9-9---9-9---|
E|-5---7-7---5-7---|-4---5-5---4-5-4-|-0-----3p0-------|-----7-7---7-7---|

over and over and over while Joe plays the outro solo is standard on his Les Paul(with 
slung over his back....the telecaster part is important too people)

You can find the outro solo here...

http://www.rockmagic.net/guitar-tabs/aerosmith/no_more_no_more.tab

it looks funny when i copy & paste it.
comments
print report bad tab
1 comment total.
0 reply
axslinger99 wrote on September 8 2012, 05:57 pm

I'm amazed...the only correct tab has the worst rating. For all of the idiots out there who are afraid of alternate tunings, don't rate the tab just because you dont' want to retune. This is the only tab here that has it right. The one with 5-stars is wrong!

I want to post or [tab]
guest
You may want to rate the tab now too:
select rating
Please do not post tabs as comments. Select "correction" instead!