Oops, an error
Loading. Please wait.

No More No More Tab

version 4
version 4

Whole song

Interactive

3,062 views 1 this week
1 commentread comment
1 2 3 4 5
accurate
x 4
add to favorites
launch autoscroll
font size
0
reset
how to read this tab
guitar tuner
Autoscroll
slow
fast
+/-
esc
set tempo
stop
Help us to improve Ultimate-Guitar.com Take our survey!
×
Author
Difficulty
novice
Tabbed by Brian-guitarist(brianthefrancis)
Song: No More No More (as on Rockin' The Joint)

Intro:
e|------------------------------------------0---|
B|-------------0-------------------0--------0---|
G|------------------------------------------1---|
D|------2--------2----------2---------2--2--2---|
A|--0-0---0-0------0---------------------2--2---|
E|---------------------4-4----4-4--------0--0---|

e|----------------------------------------|
B|----------------------------------------|
G|----------------------------------------|
D|-9-7-9--7-9-----------------------------|
A|-9-7-9--7-9-----------------------------|
E|-7-7-7--7-7-----------------------------|

Repeat

then
e|------------------------------------------0---|
B|-------------0-------------------0--------0---|
G|------------------------------------------1---|
D|------2--------2----------2---------2--2--2---|
A|--0-0---0-0------0---------------------2--2---|
E|---------------------4-4----4-4--------0--0---|

e|---------------------------------------------------------|
B|---------------------------------------------------------|
G|---------------------------------------------------------|
D|-7-9-9--7-7-9------------------7-9-9--7-7-9--9-7-9--7-9--|
A|-7-9-9--7-7-9---7-7-7--7-7-7---7-9-9--7-7-9--9-7-9--7-9--|
E|-7-7-7--7-7-7---4-5-5--4-4-5---7-7-7--7-7-7--7-7-7--7-7--|

It's hard to hear, but this is what they play during the verse:
e|----------------------------------------|
B|----------------------------------------|
G|-----9-----9---9------9-----9---9-------|
D|-----9-----9---9------9-----9---9-------|
A|-----7-----7---7------7-----7---7-------|
E|-0-0---0-0---0----0-0---0-0---0---------|over and over, listen for timing

"No more No more! No more no more!"
e|----------------------------------------|
B|----------------------------------------|
G|----------------------------------------|
D|-9-7-9--7-9--7-9-9--7-7-9---------------|
A|-9-7-9--7-9--7-9-9--7-7-9---------------|
E|-7-7-7--7-7--7-7-7--7-7-7---------------|(repeat)

Chorus:
e|------------------------------------------0---|
B|-------------0-------------------0--------0---|
G|------------------------------------------1---|
D|------2--------2----------2---------2--2--2---|
A|--0-0---0-0------0---------------------2--2---|
E|---------------------4-4----4-4--------0--0---|

e|---------------------------------------------------------|
B|---------------------------------------------------------|
G|---------------------------------------------------------|
D|-7-7-9--7-7-9------------------7-7-9--7-7-9--9-7-9--7-9--|
A|-7-7-9--7-7-9---7-7-7--7-7-7---7-7-9--7-7-9--9-7-9--7-9--|
E|-7-7-7--7-7-7---4-4-5--4-4-5---7-7-7--7-7-7--7-7-7--7-7--|

"Times there a' changin' nothin never stand still..."
e|----------------------------------------|
B|----------------------------------------|
G|-9-7-6-4-2------------------------------|
D|-9-7-6-4-2------------------------------|
A|-7-5-4-2-0------------------------------|(again)
E|----------------------------------------|

"same old story, never get a second chance!"
e|----------------------------------------|
B|----------------------------------------|
G|-4-4-4-4-4-4-4-4------------------------|
D|-4-4-4-4-4-4-4-4------------------------|
A|-2-2-2-2-2-2-2-2------------------------|(you get the point)
E|----------------------------------------|

"dance! top of! Hill!"
e|----0-----0-----0------------------------|
B|----0-----0-----0------------------------|
G|----------------1------------------------|
D|----------------2------------------------|
A|----------------2------------------------|
E|-0----0-0----0--0------------------------|

then:
e|------------------------------------------0---|
B|-------------0-------------------0--------0---|
G|------------------------------------------1---|
D|------2--------2----------2---------2--2--2---|
A|--0-0---0-0------0---------------------2--2---|
E|---------------------4-4----4-4--------0--0---|

Outro riff:
e|----------------------------------------0--------------------|
B|----------------------------------------0--------------------|
G|----------------------------------------1--------------------|
D|-7-9-9--7-7-9-------------------2-------2--9-7-9--7-9--------|
A|-7-9-9--7-7-9--7-7-7--7-7-7-----2-------2--9-7-9--7-9--------|
E|-7-7-7--7-7-7--4-5-5--4-4-5--0--0-0-3p0-0--7-7-7--7-7--------|

And just do that riff until the end. I haven't figured out the solo, but if you do, post it. 

Rock on!!!
Suggest correction
What's this?
You can suggest a correction to this tab. Community and Mods will review your correction and vote to approve or reject it.
comments
print report bad tab
1 comment total.
0 reply
stryder1017 1,874 wrote on May 27 2011, 02:43 pm

awesome, easier than the others and more accurate

guest
You may want to rate the tab now too:
select rating
Please do not post tabs as comments. Select "correction" instead!