Oops, an error
Loading. Please wait.

No Surprize Tab

version 1
version 1

Whole song

Interactive

4,971 views 3 this week
1 commentread comment
1 2 3 4 5
accurate
x 6
add to favorites
launch autoscroll
font size
0
reset
how to read this tab
guitar tuner
Tab Pro tools
  • play this tab
  • loop segment
  • change instrument
  • show fretboard
  • metronome
Autoscroll
slow
fast
+/-
esc
set tempo
stop
Contributor
Difficulty
intermediate
Aerosmith - No surprize
_______________________


      E          B             B  A  Em
   E-------------7--------------------------------------------------|
   B--9----------7----------------2---------------------------2-----|
   G--9----------8-------------4--2------------------------4--2-----|
   D--9----------9-------------4--2--2---------------------4--2--2--|
   A--7----------9-------------2-----2--2-4-2-4-2----------2-----2--|
   E-------------7------2-3-4--------0--0-0-0-0-0---2-3-4--------0--|

   E----------------------------------------------------------------|
   B--------------------4/---4-4-6-4-4-6-4/-------------------------|
   G--------------------4/---4-4-6-4-4-6-4/----------6-6--4-------4-|
   D--------------------4/---------------------------6-6--4---4-6-4-|
   A-2-4-2-4-2--2--4\6-------------------------------4-4--2---2-2-2-|
   E-0-0-0-0-0--------------------------------2-3\5-----------------|

   E----------------|
   B----------2-----|
   G-------4--2-----|
   D-------4--2--2--|
   A-------2-----2--|
   E--2\3--------0--|

 Continue with similar until...
      rhythm gtr.
   E||---------------------------------------------------------------|
   B||------------2------------------------------------------------2-|
   G||---------4--2----------------------6--4-------------------4--2-|
   D||---------4--2-2-2-4-2-4-2----------6--4-4-6-4-6-4---------4--2-|
   A||---------2--0-0-0-0-0-0-0----------4--2-2-2-2-2-2---------2--0-|
   E||--2-3-4---------------------2-3-4------------------2-3-4-------|
    ||                                                               |
    || lead gtr.                                                     |
   E||---------------------------------------------------------------|
   B||---------------------------------------------------------------|
   G||---------------------5-----------------------7-----------------|
   D||------------------4b---4r-2~~~~~~~~~~~~---6b---6r-4~~~~~~~~~~--|
   A||---------------------------------------------------------------|
   E||---------------------------------------------------------------|

   E||--------------------------------------------------|
   B||--------------------------------------------------|
   G||----------------------6/(4)-4---4-4-4-----9-9-9---|
   D||--2-2-4-2-4-2---------6/(4)-4---4-4-4-----9-9-9---|
   A||--0-0-0-0-0-0---------4/(2)-2---2-2-2-----7-7-7---|
   E||---------------2-3-4------------------------------|
    ||                                                  |
    || lead gtr.                                        |
   E||--------------------------------------------------|
   B||--------------------------------------------------|
   G||--------5-----------------------------------------|
   D||-----4b---4r-2~~~~~~~~~~~~------------------------|
   A||--------------------------------------------------|
   E||--------------------------------------------------|


   fill 1-
    0:59
   E-------12-------12--------------------------------|
   B--------------------------------------------------|
   G--14b----r-14b----r-14b--rp12--14-12~~~~~~~~~-----|
   D--------------------------------------------------|
   A--------------------------------------------------|
   E--------------------------------------------------|


                             No Surprize...
   E||---------------------------------|
   B||---------------------------------|
   G||-----------------------4--4--4---|
   D||-----------------------4--4--4---|
   A||--4b---r-2--------0----2--2--2---|
   E||------------5--4-----------------|
    ||                                 |
    || lead gtr.                       |
   E||-----------------------7--7--7---|
   B||-----------------------7--7--7---|
   G||-----------------------8--8--8---|
   D||-----------------------9--9--9---|
   A||---------------------------------|
   E||---------------------------------|
Symbols used:
 h = hammer-on
 p = pull-off
 b = bend
 r = release
 \ = slide (up)
 ~ = vibrato
comments
print report bad tab
1 comment total.
0 reply
neo14085 wrote on June 1 2009, 01:37 pm

part of the song, not all, but what you have posted sounds accurate so well done >< 4* though

I want to post or [tab]
guest
You may want to rate the tab now too:
select rating
Please do not post tabs as comments. Select "correction" instead!