Oops, an error
Loading. Please wait.

Nobodys Fault Tab

version 2
version 2

Whole song

Interactive

3,650 views 3 this week
no commentswrite comment
1 2 3 4 5
1 last vote to show rating
add to favorites
launch autoscroll
font size
0
reset
how to read this tab
guitar tuner
Autoscroll
slow
fast
+/-
esc
set tempo
stop
Help us to improve Ultimate-Guitar.com Take our survey!
×
Author
Difficulty
Tuning
intermediate
D# G# C# F# A# D#
         Aerosmith
        Nobody's Fault
           Rocks
        Half-Step Down
          MARKAY!!!
 Guitar 1 = Joe Perry
 Guitar 2 = Brad Whitford





 Guitar 1
e---------------------------------------2-|
B--------------7--------5--------3------2-|
G--9-----------7--------5--------3------4-|
D--9-----------7--------5--------3------4-|
A--------------5--------3--------1------2-|
E---------------------------------------0-|
 Guitar 2                                 |
e-----7-------------5-------3------1------|
B-----7-------------5-------3------1------|
G-----8-------------6-------4------2------|
D-----9-------------7-------5------3------|
A-----9-------------7-------5------3------|
E-----7-------------5-------3------1------|

e---5-----------------------------------------0------------------|
B---5-----------------------------------10b--------12b-10-12-12b-|
G---------2h4----4b-----4b----4p2/9h11---------------------------|
D------4---------------------------------------------------------|
A----------------------------------------------------------------|
E----------------------------------------------------------------|
                                                                 |
e----------------------------------------------------------------|
B----------------------------------------------------------------|
G----------------------------------------------------------------|
D------------------------4--------------------------2--2---------|
A---------------------------------------------------0--0---------|
E-2-2-2-2-2--2-2-2---0-2---0---0-0-0-0-0---0-0-0-0-------2-------|


VERSE A

Both Guitars
e-----------------------------------------------------------------|
B-----------------------------------------------------------------|
G----------------------------------------------------------2--2-4-|
D--------4----------------------------------------4--------2--2-4-|
A-------------------------------------------------------------0---|
E--0-1-2----2-2-2-2--2-2--2-2-2-2-2-2-2-2--0--1-2----2-2-2--------|


VERSE B

Both Guitars        X5     
e-------------------------|-----------------------------|
B-------------------------|-----------------------------|
G-------------------------|----------------------5------|
D-------------------------|----------------------5------|
A----------7--------------|-------7---------------------| 
E---5-6--7---7-5-6-7-8-8\-|5-6--7---7-5-6-7-8-8---------|

CHORUS

Both guitars
e--------------------|
B----14b-10-12----10-|
G--------------11----|
D--------------------|
A--------------------|
E--------------------|


Chorus B

Guitar 1
e-------------------------|
B----14b----13----12---11-|
G-------------------------|
D-------------------------|
A-------------------------|
E-------------------------|

Guitar2
e---------------------------------------------------------------------|
B---------------------------------------------------------------------|
G---------------------------------------------------------------------|
D-------------------------------------------------7-7-7-7-6-6-6-6-6-6-|
A-5--5--5--5--4--4--4--4--4-3-3-3-3-3-3-----------5-5-5-5-4-4-4-4-4-4-|
E-3--3--3--3--2--2--2--2--2-1-1-1-1-1-1-0-0-0-0-0---------------------|



  I dont know the rest of the solo aha.
Suggest correction
Give kudos to tab author, rate the tab!
1 2 3 4 5
comments
print report bad tab
guest
You may want to rate the tab now too:
select rating
Wanna post a correction for this tab? Suggest correction