Oops, an error
Loading. Please wait.

Out Go The Lights Tab

2,585 views 1 this week
1 commentread comment
1 2 3 4 5
x 6
add to favorites
launch autoscroll
font size
0
reset
how to read this tab
guitar tuner
Autoscroll
slow
fast
+/-
esc
set tempo
stop
Help us to improve Ultimate-Guitar.com Take our survey!
×
Author
Difficulty
intermediate
So this is what I play for the intro/main/outro basically the cool riff you hear 
throughout the song.

Main Intro (before the riff starts)

e----------------|
B----------------|
G-----------9----|
D-----------9----|
A------5-7-------|
E--5-8-----------|


e----------------|
B----------------|
G-----------7----|
D-----------7----|
A------5-7-------|
E--5-8-----------|


e-------------------|
B-------------------|
G-----------5---9---|
D-----------5---9---|
A------5-7----------|
E--5-8--------------|


Main Riff

e-----------------------------------|
B-----------------------------------|
G-----------------------------------|
D---------5-------------------------|
A-----------9-7-5---5-6-7-5---------|
E--55555----------8---------8-5-(5)-|

This (5) can be played either here or as part of the next section (it depends how you 
play the rhythm)

e----------------------------------------------|
B----------------------------------------------|
G----------------------------------------------|
D----------------------5-----------------------|
A-------5-7--------5-7---9-7-5---5-6-7-5-------|
E-(5)-8----5-----8-------------8---------8-5-5-|

After this you just keep repeating it apart from the chorus bit where you can either 
play the intro as a backing or just literally play along with Steve's voice.

So yeh that basically how I play this. Obviously people are going to play in different 
ways but this is how I play it by ear. You will need to listen to the song a few times to 
get the rhythm for each section as it does vary through the song.

Hope this helps :D
Suggest correction
comments
print report bad tab
1 comment total.
0 reply
meard 20 May 26, 2013 06:04 PM

nice job sounds good :)

guest
You may want to rate the tab now too:
select rating
Wanna post a correction for this tab? Suggest correction