Oops, an error
Loading. Please wait.

Rag Doll Tab

version 2
version 2

Whole song

Interactive

25,552 views 9 this week
no commentswrite comment
1 2 3 4 5
accurate
x 6
add to favorites
launch autoscroll
font size
0
reset
how to read this tab
guitar tuner
Tab Pro tools
  • play this tab
  • loop segment
  • change instrument
  • show fretboard
  • metronome
×
Best way to learn
"Rag Doll"
Autoscroll
slow
fast
+/-
esc
set tempo
stop
Contributor
Difficulty
intermediate
Song - Rag Doll
Artist - Aerosmith
Album - Permanent Vacation
Year - 1987
Part - Slide (Rhythm according to Guitar Hero)
Tuning - EADGBe (Standard)
Tabbed by classicrockboy

Joe Perry usually plays this on a slide guitar. (If you don’t know what it 
is, it’s that table-looking thing he uses if you look on live versions or 
in guitar hero) But since I don’t have one I’m sure most of you guys don’t 
have one, you can just use your regular guitar on a table, on your lap, or 
even just the normal way. This might not be 100% accurate... it just sounds 
good to me. PM me if you want me to make a recording.

TIP: When using a slide, I think it sounds better if you switch your toggle
switch to “Treble.” Also, use a slide.

Intro:
|------------------------------------------------------|
|----------------------------------------------12~~~---|
|--9\8/9~~~------------7/6(slowly slide to)12----------|
|-----------8/9\8/9~~~---------------------------------|
|-----------8/9\8/9~~~---------------------------------|
|------------------------------------------------------|

|-----------------------------------------------15\7---|
|---------------------------------13\10--13/15--15\7---|
|--6/9~~~--------------9/11-11~~~----------------------|
|---------9-9\8---9~~~---------------------------------|
|---------------9--------------------------------------|
|------------------------------------------------------|

|-------------|
|-------------|
|--11\7--5/7--|
|--11\7--5/7--|
|-------------|
|-------------|

Chorus:
|----------|-------------|-------------------|-----------|
|----------|-------------|-------------------|-----------|
|-4~~~~~~~-|-----7~~~~~~-|-7\0-0/2~~~~~~~~~~-|---2/4~~~~-|
|-4~~~~~~~-|-4/7-7~~~~~~-|-7\0-0/2~~~~~~~~~~-|-2-2/4~~~~-|
|----------|-------------|-------------------|-----------|
|----------|-------------|-------------------|-----------|
  Rag Doll,       Hot tramp,      Ya so fine,    By
   livin’ in       daddy’s         they never     the 
    a movie         little          see you        back
                     cutie           leaving        door,
|----------|
|----------|
|-9/12-9~~-|
|-9/12-9~~-|
|----------|
|----------|
   Man.

|----------|-------------|-------------------|-----------|
|----------|-------------|-------------------|-----------|
|-4~~~~~~~-|-----7~~~~~~-|-7\0-0/2~~~~~~~~~~-|-2/4-4~~~~-|
|-4~~~~~~~-|-4/7-7~~~~~~-|-7\0-0/2~~~~~~~~~~-|-2/4-4~~~~-|
|----------|-------------|-------------------|-----------|
|----------|-------------|-------------------|-----------|
 Hot time,      I don’t mind      Rag Doll,      You 
  get it while   come on up        baby won’t     done
   it’s easy      and see me        do me like     before

|------------------|
|------------------|
|-9/12-9~~-7\2-2~~-|
|-9/12-9~~-7\2-2~~-|
|------------------|
|------------------|

Verse 1:
|---------|---------------|----------|----------|
|---------|-9-------7/9---|----------|----------|
|-9~~~~~~-|--8/9~~~-------|----4~~~~-|-2/4~~~~~-|
|-9~~~~~~-|---------------|----------|-2/4~~~~~-|
|---------|---------------|-/2-------|----------|
|---------|---------------|----------|----------|
 I’m feelin’   Mmm, just      I’m rippin   Like throwin’
  like a         like a        up a         away an 
   bad boy         bad boy      rag doll     old toy

|----------|----------|----------|----------|
|----------|----------|----4~~~~-|----------|
|-7/9~~~~~-|-7/9~~~~~-|-2/4------|-2/4~~~~~-|
|-7/9~~~~~-|-7/9~~~~~-|-2/4------|-2/4~~~~~-|
|----------|----------|----------|----------|
|----------|----------|----------|----------|
 Some babe’s  Talkin’ all  Try and   A new version
  talkin’      about the    sell me   of the 
   real loud    new crowd    on an     old scene
                              old dream

|---------|---------------------|
|---------|---------------8/9~~-|
|-7/9-9~~-|-8/9~~-9-8/9~~-------|
|-7/9-----|---------------------|
|---------|---------------------|
|---------|---------------------|
 Speak easy   Keep shufflin’ 
  on the        the shoe shine
   grape vine
---------------------------------
(no tab here)
Old tin lizzy, do it till you're dizzy 
Give it all ya got until you're 

|-------------|
|-------------|
|--11\7--5/7--|
|--11\7--5/7--|
|-------------|
|-------------|
   put out 
      of your 
         misery

 Chorus:
|----------|-------------|-------------------|-----------|
|----------|-3/4-5/7~~~~-|-------------------|-----------|
|-2/4-4~~~-|-------------|-7\0-0/2~~~~~~~~~~-|-2-2/4~~~~-|
|-2/4------|-------------|-7\0-0/2~~~~~~~~~~-|-2---------|
|----------|-------------|-------------------|-----------|
|----------|-------------|-------------------|-----------|
  Rag Doll,       Hot tramp,      Ya so fine,    By
   livin’ in       daddy’s         they never     the 
    a movie         little          see you        back
                     cutie           leaving        door,
|----------|
|----------|
|-9/12-9~~-|
|-9/12-9~~-|
|----------|
|----------|
   Man.

|----------|----------10~~-|-----------------|-----------|
|----------|------8/10-----|-----------------|-----------|
|-2/4~~~~~-|-7~~~----------|-2~~~~~~~~~~-----|-2/4~~~~~~-|
|-2/4~~~~~-|-7~~~----------|-2~~~~~~~~~~-----|-2/4~~~~~~-|
|----------|---------------|-----------------|-----------|
|----------|---------------|-----------------|-----------|
 Hot time,      I don’t mind      Rag Doll,      You 
  get it while   come on up        baby won’t     done
   it’s easy      and see me        do me like     before

|------------------|
|------------------|
|-9/12-9~~-7\2-2~~-|
|-9/12-9~~-7\2-2~~-|
|------------------|
|------------------|

Rest coming shortly!
comments
print report bad tab
I want to post or [tab]
guest
You may want to rate the tab now too:
select rating
Please do not post tabs as comments. Select "correction" instead!