Oops, an error
Loading. Please wait.

Rag Doll Tab

version 4
version 4

Whole song

Interactive

1,547 views 1 this week
no commentswrite comment
1 2 3 4 5
please rate
add to favorites
launch autoscroll
font size
0
reset
how to read this tab
guitar tuner
Autoscroll
slow
fast
+/-
esc
set tempo
stop
Help us to improve Ultimate-Guitar.com Take our survey!
×
Author
Difficulty
intermediate
Note that this tab is only the intro & verse
Artist: Aerosmith
Song: Rag Doll
Album: Big Ones (Was Released on Permanent Vacation in 1987)
Tuning: Standard
----------------------------------------------------------------------------
Intro & Riff 1 (Riff 1/the Verses)
e|-----------------------|--------------------|---------------------------|
B|-----------------------|--------------------|---------------------------|
G|----9-9--9/7--9-11-9-9-|-9-9--9/7--9-11-9-9-|-4-4--4/2--4-6-4-4---------|
D|----9-9--9/7--9-11-9-9-|-9-9--9/7--9-11-9-9-|-4-4--4/2--4-6-4-4---------|
A|-----------------------|--------------------|---------------------------|
E|-----------------------|--------------------|---------------------------|

e|-----------------------|--------------------|---------------------------|
B|-----------------------|--------------------|---------------------------|
G|----4-4--4/2--4-6-4~~~-|-9-9--9/7--9-11-9-9-|-9-9--9/7--9-11-9-9--------|
D|----4-4--4/2--4-6-4~~~-|-9-9--9/7--9-11-9-9-|-9-9--9/7--9-11-9-9--------|
A|-----------------------|--------------------|---------------------------|
E|-----------------------|--------------------|---------------------------|

e|-----------------------------|---------------------|
B|-----------------------------|---------------------|
G|----11-11--11/9--11-13-11-11-|-7/11-11-11--11/---7-|
D|----11-11--11/9--11-13-11-11-|-7/11-11-11--11/---7-|
A|-----------------------------|-------------9-/---5-|
E|-----------------------------|---------------------|

Chorus
e|-------------------------|-------|
B|-------------------------|-Play--|
G|-----------------------2-|-Three-|
D|-------------0-1-2-3-4---|-Times-|
A|-0-1-2---2---------------|-------|
E|-------------------------|-------|
                                    
                                             G    E     D    A   (2nd time) 
e|-------------------------|------------------------|--------------|
B|-------------------------|-----------------0----0-|---7----5-----|
G|-----------------------2-|-----------------0----1-|---7----6-----|
D|-------------0-1-2-3-4---|-----------------0----2-|---7----7-----|
A|-0-1-2---2---------------|-0-1-2---2-------X----2-|---5----7-----|
E|-------------------------|-----------------3----0-|--------5-----| play x2
                           |...back door,     man._

Then continue to play back and forth from Riff 1 and the chorus. 
Note#2: This tab is for Guitar 1 (Joe Perry's Part). Guitar 2 has a different 
tuning and I don't know how to play the part Guitar 2 plays.

Happy Playing!!!!!!!!!!!!
Suggest correction
Give kudos to tab author, rate the tab!
1 2 3 4 5
comments
print report bad tab
guest
You may want to rate the tab now too:
select rating
Wanna post a correction for this tab? Suggest correction