Oops, an error
Loading. Please wait.

Same Old Song And Dance Tab

version 2
version 2

Whole song

Interactive

38,192 views 54 this week
5 commentsread comments
1 2 3 4 5
x 11
add to favorites
launch autoscroll
font size
0
reset
how to read this tab
guitar tuner
backing track
0:00
0:00
×
Best way to learn
"Same Old Song And Dance"
Autoscroll
slow
fast
+/-
esc
set tempo
stop
Author
Difficulty
  follow
intermediate
"Same old song and dance"
                                   "Aerosmith"
                                     "1975"


 [Intro]
e|----------------------------------|
B|----------------------------------|
G|----------------------------------|  4x
D|---------0-0---0-----------9--9\--|
A|--2----2---0-2---2----2----7--7\--|
E|--0--3b------------3b-0-----------|

 [Solo 1]
                                                            W\Wah
e|--5p3p0-----0----------------------------------------------------|
B|--------0h3-----------------------------0-3b---------------------|
G|--------------4p2p0--2b-0---0-2p0--0-2b------4p2p0--------12-12\-|
D|--------------------------2-------2----------------2-2~~--12-12\-|
A|-----------------------------------------------------------------|
E|-----------------------------------------------------------------|

 [Verse]
  (get yourself..)
e|--0-------3-----0-|
B|--0---3-3---3---0-|
G|------2-2-----2---|
D|------------------|
A|------------------|
E|------------------|

 [Chorus]
   (Same old story..)
e|--------------------------------------------------|
B|--------------------------------------------------|
G|--------------------------------------------------|
D|--------------5--5--7--7----------0-0----0--------|
A|--5--5--7--7--3--3--5--5---2----2---0--2---2----2-|
E|--3--3--5--5---------------0-3b--------------3b-0-|

 [Bridge]
    (Can't Rearrange it..)
e|--------------------------------|
B|--------------------------------|
G|----4-4-0-2-----4-2-0-2---------|
D|----4-4-0-2-----4-2-0-2---------|
A|------------0h2-----------------|
E|--------------------------------|

 [Solo 2]
e|--3--0--3-3--0------12----------------------3--0-------12----------|
B|--3--0--3-3--0--/12----12h15p12---------3---3--0--0/12----12h15p12-|
G|--------------------------------12--------0------------------------|
D|-----------------------------------14\-----------------------------|
A|-------------------------------------------------------------------|
E|-------------------------------------------------------------------|

e|-------------------------------------------------------------------|
B|-------------------------------------------------------------------|
G|--12-12~~---------------------12-12~~--------------11-14-13~~------|
D|--------14--14-----------12------------------11-14-----------------|
A|---------------------/14---14----------11-14-----------------------|
E|----------------12\0-----------------------------------------------|

e|------------12-----------------12----------------12-15-17-17b-17b~~|
B|----------12---12-15---------12---15b-15br-15-15-------------------|
G|----12-13------------12~~-14b--------------------------------------|
D|-14----------------------------------------------------------------|
A|-------------------------------------------------------------------|
E|-------------------------------------------------------------------|

  That's just about it, I hope it helped.

************************************

| \   Slide down
| b   Bend
| p   Pull-off
| h   Hammer-on
| ~   Vibrato
| /   Slide up
| br  Bend release

************************************
Suggest correction
comments
print report bad tab
5 comments total. Showing first comments.
0 reply
rock&roll69 10 Apr 01, 2011 02:46 PM

this tab
sucks

0 reply
GarbageBoy 183 Apr 11, 2011 03:53 PM

Thanks for sharing your opinion.I'm sorry it didn't help you.

0 reply
ColonelHerro 20 Apr 11, 2011 04:59 PM

E----------------------------------|
B----------------------------------|
G----------------------------------|
D---------0-0---0-----------9--9\--|
A--2----2---0-2---2----2----7--7\--|
E--0--3b------------3b-0-----------|

guest
You may want to rate the tab now too:
select rating
Wanna post a correction for this tab? Suggest correction