Oops, an error
Loading. Please wait.

Seasons Of Wither Tab

version 1
version 1

Whole song

Interactive

39,815 views 54 this week
10 commentsread comments
1 2 3 4 5
x 33
add to favorites
launch autoscroll
font size
0
reset
how to read this tab
guitar tuner
Autoscroll
slow
fast
+/-
esc
set tempo
stop
Help us to improve Ultimate-Guitar.com Take our survey!
×
[Intro Fig.] (7x)                        
e|-----------------|-----------------|    On the        -----|
B|-----------------|-----------------|    last rep      -----|
G|-----0-----0-----|-----0-----0-----|    substitute    ---0-|
D|---0-----0-----0-|---2-----3-----3-|    these for     -----|
A|-------1---------|-0-----1-----1---|    the last      -3---|
E|-3-----------3---|-----------------|    two notes:    -----|

[Bridge]
(Fig. 4x)
     D                           C                    D     C   Bb  F
e|-----------------|-----------------|  Replace   |-----------------|
B|-7-----7---------|-7-----7---5-----|  the last  |-7-7---5---3-----|
G|-7-----7---------|-7-----7---5-----|  measure   |-7-7---5---3-----|
D|-7-----7---------|-7-----7---5-----|  of the    |-7-7---5---3---3-|
A|-5-----5---------|-5-----5---3-----|  last rep  |-5-5---3---1---3-|
E|-----------------|-----------------|  with:     |---------------1-|

[Verse]
(Fig. 5x)
e|-----------------|-----------------|-----------------|-----------------|
B|-----------------|-----------------|-----------------|-----------------|
G|-----2-----0-----|-----2-----0-----|-----2-----2-----|-----0-----0-----|
D|---0-----0-----0-|---0-----0-----0-|---0-----0-----0-|---0-----0-----0-|
A|-----------------|-----------------|-----------------|-----------------|
E|-0-----0-----0---|-1-----1-----1---|-2-----2-----2---|-3-----3-----3---|

blues hearted lady, sleepy was she
love for the devil brought her to me
seas of a thousand drawn to her sin
Seasons of Wither holdin' me in

[Chorus]
  ~~~~~~
e|-----------------|-----------------|-----------------|
B|-----------------|-----------------|-----------------|
G|-----0-----0-----|-----0-----0-----|-----2-----0-----|
D|---0-----0-----0-|---2-----2-----2-|---0-----0-----0-|
A|-----------------|-3-----3-----3---|-2-----2-----2---|
E|-3-----3-----3---|-----------------|-----------------|

e|-----------------|-----------------|-----------------|
B|-----------------|-----------------|-----------------|
G|-----2-----0-----|-----2-----0-----|-----0-----0-----|
D|---0-----0-----0-|---0-----0-----0-|---0-----0-----0-|
A|-----------------|-----------------|-----------------|
E|-0-----0-----0---|-1-----1-----1---|-3-----3-----3---|

-ooh always me, I feel so badly for you

(repeat last 6 measures)
-ooh always me, I feel so sadly for you at times

e|-----------------|-----------------|-----------------|
B|-----------------|-----------------|-----------------|
G|-----0-----0-----|-----0-----0-----|-----0-----0-----|
D|---0-----0-----0-|---0-----0-----0-|---0-----0-----0-|
A|-0-----0-----0---|-1-----1-----1---|-3-----3-----3---|
E|-----------------|-----------------|-----------------|

bound to lose your mind
live on borrowed time
take the wind right out of your sails

[end Chorus]

(w/Bridge)
(Fig. 6x)
fireflies dance in the heat of
hound dogs that bay at the moon
my ship leaves in the midnight
can't say I'll be back too soon

[w/Verse]
(Fig. 4x)
they awaken far far away
heat of my candle show me the way
seas of a thousand drawn to her sin
Seasons of Wither holdin' me in

[Chorus]

[Bridge] 
(Fig. 4x)

[Verse]
(Fig. first 3 measures only)

[Intro]
(Fig. 4x)

(end on D chord (x5777x).

For some reason, this song was mixed with the guitar section very
quiet.  So, don't blame me if some of this is not right--especially
the "ooh, always me" part!  Treat this tab as just one person's 
conception of the song, if you wish. :-)  The lyrics are denoted 
by hyphens and correspond to the tab section right above them.

There is a fill near the end that goes something like..

e|--------------12------------------------------------------------------|
B|-15-------15----------------------------15----------------------------|
G|------------------14b16r14-12----14-----14b16r14--12-------[24]-------|
D|-----------------------------------------------------------harmonic---|
A|----------------------------------------------------------------------|
E|----------------------------------------------------------------------|

"Livin', lovin' getting loose
 Masturbatin' with a noose 
 Now someone's kickin' out the chair!"
Suggest correction
comments
print report bad tab
10 comments total. Showing first comments.
0 reply
aero-all 10 Apr 28, 2006 11:29 PM

A great tab. For a great song.

+1 reply
Bloozy 10 May 07, 2006 01:27 PM

ditto...this song is a lost gem.

0 reply
Dead Horse 10 May 28, 2006 05:05 PM

brilliant tab!

guest
You may want to rate the tab now too:
select rating
Wanna post a correction for this tab? Suggest correction