Oops, an error
Loading. Please wait.

Shame Shame Shame Bass Tab

1,750 views 3 this week
no commentswrite comment
1 2 3 4 5
3 more votes to show rating
add to favorites
launch autoscroll
font size
0
reset
guitar tuner
Autoscroll
slow
fast
+/-
esc
set tempo
stop
Help us to improve Ultimate-Guitar.com Take our survey!
×
Shame shame shame by Aerosmith
Standard Tuning

G:----------|----------|----------|----------|
D:----------|----------|3--2--3--2|3--2--3--2|
A:3--2--3--2|3--2--3--2|----------|----------|
E:----------|----------|----------|----------|

G:----------|----------|----------|----------|
D:----------|----------|----------|----------|
A:3--2--3--2|3--2--3--2|3--2--3--2|3--2--3--2|
E:----------|----------|----------|----------|

G:----------|----------|----------|----------|
D:3--2--3--2|3--2--3--2|3--2--3--2|3--2--3--2|__
A:----------|----------|----------|----------| |
E:----------|----------|----------|----------| |_
                                               |_ x2
G:----------|----------|----------|----------| |
D:----------|----------|----------|----------|_|
A:3--2--3--2|3--2--3--2|3--2--3--2|3--2--3--2|
E:----------|----------|----------|----------|

G:----------|----------|----------|----------|
D:---5--5---|---3--3---|----------|----------|
A:----------|----------|3--2--3--2|3--2--3--2|
E:----------|----------|----------|----------|

G:----------|----------|----------|----------|
D:----------|----------|----------|----------|
A:3--2--3--2|3--2--3--2|3--2--3--2|3--2--3--2|
E:----------|----------|----------|----------|

G:----------|----------|----------|----------|
D:3--2--3--2|3--2--3--2|----------|----------|
A:----------|----------|3--2--3--2|3--2--3--2|
E:----------|----------|----------|----------|

G:----------|----------|----------|----------|
D:---5--5---|---3--3---|----------|----------|
A:----------|----------|3--2--3--2|3--2--3--2|
E:----------|----------|----------|----------|

G:----------|----------|----------|----------|
D:----------|----------|----------|----------|
A:3--3--3--3|----------|3--3--3--3|----------|
E:----------|----------|----------|----------|

G:----------|----------|----------|----------|
D:----------|----------|----------|----------|
A:----3-----|---3--3---|---3--3---|3--1--0---|
E:----------|----------|----------|---------3|

G:----------|----------|----------|----------|
D:----------|/3--------|----------|----------|
A:---0--1--2|---0--1--3|3--1--0---|3--1--0---|
E:1---------|----------|---------3|---------3|

G:----------|----------|----------|---2--3--5|
D:----------|/3--------|---2--3--5|3---------|
A:---0--1--2|---0--1--3|3---------|----------|
E:1---------|----------|----------|----------|

G:0---------|----------|----------|---2--3--5|
D:----------|----------|---2--3--5|3---------|
A:---3--1---|---2--3--5|3---------|----------|
E:---------3|3---------|----------|----------|

G:----------|----------|----------|----------|
D:----------|----------|----------|---0--2--3|
A:3--2--3--2|3--2--3--2|3--2--3--2|3---------|
E:----------|----------|----------|----------|

G:----------|----------|----------|----------|
D:3--3--3--3|3--3--3--3|----------|----------|
A:----------|----------|---0--2--3|3--3--3--3|
E:----------|----------|3---------|----------|

G:----------|----------|----------|----------|
D:----------|---0--2--3|3--3--3--3|3--3--3--3|
A:3--3--3--3|3---------|----------|----------|
E:----------|----------|----------|----------|

G:----------|----------|----------|----------|
D:----------|----------|----------|------2--3|
A:---0--2--3|3--3--3--3|3--3--3--3|3--3------|
E:3---------|----------|----------|----------|

G:0---------|----------|----------|---2--3--5|
D:---------0|3---------|---2--3--5|3---------|
A:---2--3---|---0--1--2|3---------|----------|
E:----------|----------|----------|----------|

G:----------|----------|----------|----------|
D:---2--3--4|5--3--2--0|---2--3--4|5--3--2--0|
A:3---------|----------|3---------|----------|
E:----------|----------|----------|----------|

G:---2--3--4|5--3--2--0|----------|----------|
D:3---------|----------|---2--3--4|5--3--2--0|
A:----------|----------|3---------|----------|
E:----------|----------|----------|----------|

G:---2--3--4|5--3--2--0|----------|--33-44-55|
D:3---------|----------|--22-33-44|55--------|
A:----------|----------|33--------|----------|
E:----------|----------|----------|----------|

G:----------|----------|5---------|----------|
D:----------|---2--3--5|---2--3--5|----------|
A:---2--3--5|3---------|----------|3---------|
E:3---------|----------|----------|----------|

G:----------|----------|----------|----------|
D:3---------|3---------|---2--3--5|----------|
A:---0--2--3|---0--2--3|3---------|3--1--0---|
E:----------|----------|----------|---------3|

G:----------|----------|----------|---2--3--5|
D:3---------|3---------|---2--3--5|3---------|
A:---0--2--3|---0--2--3|3---------|----------|
E:----------|----------|----------|----------|

G:----------|----------|----------|----------|
D:5---------|----------|----------|----------|
A:------2--3|---0--1--2|-3---2---3|-3---3---3|
E:---5------|1---------|----------|----------|

Thanks, please rate it after you learn it.
Tabbed By:
_TheBassist01_
Suggest correction
Give kudos to tab author, rate the tab!
1 2 3 4 5
comments
print report bad tab
guest
You may want to rate the tab now too:
select rating
Wanna post a correction for this tab? Suggest correction