Oops, an error
Loading. Please wait.

Shut Up And Dance Tab

version 1
version 1

Intro

Whole song

Interactive

2,411 views 3 this week
1 commentread comment
1 2 3 4 5
2 more votes to show rating
add to favorites
launch autoscroll
font size
0
reset
how to read this tab
guitar tuner
Autoscroll
slow
fast
+/-
esc
set tempo
stop
Help us to improve Ultimate-Guitar.com Take our survey!
×
Author
Difficulty
intermediate
Shut Up & Dance - Aerosmith
From "Get A Grip"

Ok, so I was tired of not being able to find any tabs for this sweet song. So, I learned
by ear. Actually, it wasn't that hard. A few weeks ago, it was hard as hell, but now
better, I guess. I might start posting more tabs by ear, since I'm getting a lot of 
by ear. Ok, enough blabbing. Here's the intro/some other parts.

I'm not sure who plays this (Brad or Joe), but I know what's played in the first chords.
just post the chords, not the rythm. You get it from the song, and the palm muting is
for fun. Try it anyway.)

X = strum with left hand muting strings
S = slide
h = hammer-on
p = pull-off
b = bend
hb= half-bend
~ = vibrato

E----------------------------------------------------|
B--------3-------------------------------------------|
G-4--4-4-3-4-x-2-4-4-4--2-4--------------------------|
D-5--5-5---5-x-3-5-5-5--3s5--------------------------|        (repeat 2x)
A----------------------------------------------------|
E----------------------------------------------------|

Main Riff
E-----------------------------|
B-----------------------------|
G-----------------------------|
D--5-5--3-5-5-----------------|
A--5-5--3-5-5-----------------|
E--3-3--1s3-3-----------------|

Chorus Fill
E---------------------------------------|
B--10hb-10---8----6--8--6~--------------|
G---------------------------------------|
D---------------------------------------|
A---------------------------------------|
E---------------------------------------|

E---0--------(2)----|-------|
B---0---------3-----|-(5)---|
G---1---------2-----|--5----|
D---2---------0-----|--5----|
A---2---------------|--3----|
E---0---------------|-------|
Suggest correction
Give kudos to tab author, rate the tab!
1 2 3 4 5
comments
print report bad tab
1 comment total.
0 reply
aerofan515 41 Jul 03, 2009 01:08 AM

its all wrong, its sounds horrible. it should go:
Intro-
e---------------------------
b---------------------------
g---------------------------
d---5-5-3-3-5-3-5-5-3-3-5---
a---5-5-3-3-5-3-5-5-3-3-5---
e---3-3-1-1-3-1-3-3-1-1-3---

Verse-
e---0-----2---
b---0-----3---
g---0-----2---
d---2Hold-0---
a---2-----0---
e---0-----x---

guest
You may want to rate the tab now too:
select rating
Wanna post a correction for this tab? Suggest correction