Oops, an error
Loading. Please wait.

Sos Too Bad Tab

version 1
version 1

Intro

Interactive

2,173 views 3 this week
no commentswrite comment
1 2 3 4 5
x 4
add to favorites
launch autoscroll
font size
0
reset
how to read this tab
guitar tuner
Autoscroll
slow
fast
+/-
esc
set tempo
stop
Author
Tuning
E A D G B E
(Intro)

e|---------------------------------------------|
B|---------------------------------------------|
G|---------------------------------------------|
D|--6--4------------------6--4-----------------|
A|--------6-----2--3--4---------6-----4--2-----|
E|-----------4---------------------4--------4--|

e|----------------------------------------------------|
B|----------------------------------------------------|
G|----------------------------------------------------|
D|--6--4------------------6--4------------------------|
A|--------6-----2--3--4---------6-----4--2------------|
E|-----------4---------------------4--------4--s2--s3-|

e|----------------------------------------------|
B|----------------------------------------------|
G|----------------------------------------------|
D|----------------------------------------------|
A|----------------------------------------------|
E|-4x-4x-4x-4x-4x-4x-4x-4x-4x-4x-4x-4x-4x-4x-4x-|

e|-------------------------------|
B|-------------------------------|
G|-------------------------------|
D|-------------------------------|
A|-------------------------------|
E|-4-4-4-4-4-4-4-4-4-4-4-4-4-4-4-|
Suggest correction
comments
print report bad tab
guest
You may want to rate the tab now too:
select rating
Wanna post a correction for this tab? Suggest correction