Oops, an error
Loading. Please wait.

Sweet Emotion Tab

version 1
version 1
184,378 views 366 this week
5 commentsread comments
1 2 3 4 5
accurate
x 31
add to favorites
launch autoscroll
font size
0
reset
how to read this tab
guitar tuner
Autoscroll
slow
fast
+/-
esc
set tempo
stop
Help us to improve Ultimate-Guitar.com Take our survey!
×
A E R O S M I T H
                         "Sweet Emotion"
                     from _Toys in the Attic_

                  (also on _Pandora's Box_, and
               heavily abridged on _Greatest Hits_)


A             D      A
S w e e t   E m o -  t i o n


  [Verse]
e|-----------------|-----------------|
B|-3---------------|-----------------|
G|-2---2-----2-----|---------2-------|
D|-0---2-----2-----|---------2-------|
A|-----0-----0-----|-3p0-----0-------|
E|-----------------|-----3------(3)--|
talk about things and nobody cares.. etc.


 [ Between verses]
e|-----------------|-----------------|
B|-----------------|-----------------|
G|-----------------|-----------------|
D|-----------------|-----------------|
A|-5p3p0-----------|-----------------|
E|-------0-2-2---0-|-3-3---0-4---5---|


 [ Outro ](solo mainly in E dorian)
e|-----------------|-----------------|
B|-----------------|-----------------|
G|---------7-----9-|---9-----2-2-----|
D|-2---2---7-----9-|---9-----2-2-----|
A|-2---2---5-----7-|---7-----0-0-----|
E|-0---0-------0---|-------0-----3-4-|


-------------------------------------
Another Version:
-------------------------------------

Aerosmith "Sweet Emotion"          
-------------------------


  Guitar intro/chorus (Fig A)            Bass intro/chorus
e| e---------------------------------  e---------------------------------------|
B| b---------------------------------  b---------------------------------------|
G| g---------------------------------  g---------12--------14------------------|
D| d---------5-----7---7-------------  d---------------------------12-11-14-14-| 
A| a-0---0-0---0-0-------0-0-5p0-4h5-  a-12--12------12-12---------------------|
E| e---------------------------------  e---------------------------------------|
   1 e + a 2 e + a 3 e + a 4 e + a     1 e + a 2 e +  a  3 e + a 4  e  +  a

[Verse] (Fig B)
 e---------------------------------
 b-3-------------------------------
 g-2---2-----2-------------2-------
 d-0---2-----2-------------2-------
 a-----0-----0-----3p0-----0-------
 e---------------------3-----------
   1 e + a 2 e + a 3 e + a 4 e + a


  [Between verses] (Fig C)
e| e[---------------------------------]3 ---------------------------------|
B| b[---------------------------------]3 ---------------------------------|
G| g[---------------------------------]3 ---------------------------------|
D| d[---------------------------------]3 ---------------------------------|
A| a[-5p3p0---------------------------]3 -5p3p0---------------------------|
E| e[-------0-2-2---0-3-3---0-4---5---]3 -------0-2-2---0-3-------4---5---|
    1 e + a 2 e + a 3 e + a 4 e + a     1 e + a 2 e + a 3 e + a 4 e + a

The is how is goes on the Greatest Hits CD
(these words are what I think they are, if someone has the real lyrics,
please update them):

 (Fig A 8 times)
         "Sweet Emotion
          Sweet Emotion"

  (Fig B 8 times)
         "Talk about things and nobody cares
          wearin' out things that nobody wears
          callin' my name but I gotta make clear
          I can't say baby where I'll be in a year"
         (Fig C - no vocals here)
         (Fig B 8 times)
         "Some (sweat hoggin')? mama with a face like a gent
          said my get up and go must've got up and went
          well I got good news she's a real good liar
          'cause a backstage a boogie set ya pants on fire"
         (Fig C - no vocals here)

 (Fig A 8 times)
         "Sweet Emotion
          Sweet Emotion"

  (Fig B 8 times)
         "I pulled into town in a police car
          your daddy said I took you just a little too far
          you tell 'em them things but your girlfriend lied
          you can't catch me 'cause the rabbit done died (yes it did)"
         (Fig C - no vocals here)
         (Fig B 8 times)
         "Stand in the front just a shakin' your ass
          I take you backstage you can drink from my glass
          I talk about something you can sure understand
          'cause a month down the road I'll be eatin' from your hand"
         (Fig C - no vocals here)

 (Fig A repeatedly 'til fade)
         "Sweet Emotion"
Suggest correction
comments
print report bad tab
5 comments total. Showing first comments.
0 reply
trusoldja 0 wrote on March 5 2002, 12:00 am

really good I am crazy

0 reply
zTo 0 wrote on April 21 2002, 12:00 am

thanx for a sweet tab that gets the emotions flowin

0 reply
CrimsonVapor 10 wrote on August 20 2009, 10:09 pm

this tab is great! its exactly right! i checked it against the song. good job.

guest
You may want to rate the tab now too:
select rating
Wanna post a correction for this tab? Suggest correction