Oops, an error
Loading. Please wait.

Sweet Emotion Tab

version 3
version 3
8,478 views 3 this week
3 commentsread comments
1 2 3 4 5
accurate
x 4
add to favorites
launch autoscroll
font size
0
reset
how to read this tab
guitar tuner
Tab Pro tools
  • play this tab
  • loop segment
  • change instrument
  • show fretboard
  • metronome
×
Best way to learn
"Sweet Emotion"
Autoscroll
slow
fast
+/-
esc
set tempo
stop
Contributor
----------------------------------------------------------------------------
                             Sweet Emotion - Aerosmith
----------------------------------------------------------------------------

Tabbed by:ghostman
Email:imreelstupid90@cox.net

Tuning: normal tuning

Intro:

e|-------------------------------------------------------------------|
B|-------------------------------------------------------------------|
G|-------------------------------------------------------------------|
D|-------5---7-7-----------------------------------------------------| X8
A|---------------5-7p5-----------------------------------------------|
E|---5-5---5---------------------------------------------------------|

Chorus: play about 5 times

e|-------------------------------------------------------------------|
B|-------------------------------------------------------------------|
G|---2---------------------------------------------------------------|
D|---0--2---2--------2-----------------------------------------------| X5
A|------0---0--3p0---0-----------------------------------------------|
E|-----------------3---3---------------------------------------------|

e|-------------------------------------------------------------------|
B|-------------------------------------------------------------------|
G|-------------------------------------------------------------------|
D|-------------------------------------------------------------------| X4
A|---5p3p0--4-4-4-5-5-5-6-7------------------------------------------|
E|----------2-2-2-3-3-3-4-5------------------------------------------|

Coda: play once

e|---------------------------------------------------------------------|
B|---------------------------------------------------------------------|
G|---------------------------------------------------------------------|
D|---------------------------------------------------------------------| X5
A|---5p3p0--4-4-4-5-5-5-6-7^^^^^^^^^^^^^^^^^^^^^^^^^^^^^^^^^^^^^^^^----|
E|----------2-2-2-3-3-3-4-4^^^^^^^^^^^^^^^^^^^^^^^^^^^^^^^^^^^^^^^^----|

e|-------------------------------------------------------------------|
B|-------------------------------------------------------------------|
G|-------------------------------------------------------------------| X
D|-------7---9-9-----------------------------------------------------|
A|---------------7-9p7-----------------------------------------------|
E|---7-7--7----------------------------------------------------------|

\
| /  slide up
| \  slide down
| h  hammer-on
| p  pull-off
| ~  vibrato
| +  harmonic
| x  Mute note
===================================================================
comments
print report bad tab
3 comments total.
0 reply
guitartaber93 wrote on September 24 2007, 11:07 am

i think you made a mistake on the intro. i think it's
e------------------------
B-----------------------
G---------------------
D------5---7-7--5--7p5
A----------------------
E-5-5---5---------------

0 reply
guitartaber93 wrote on September 24 2007, 11:08 am

but im not completely sure i might be wrong

0 reply
Chisse wrote on November 20 2015, 03:59 am

Great tab. I found a concert record where intro is played like this after drum starts:
e|---------------------|
B|---------------------|
G|---------------7-5h6-|
D|-------5---7-7-------|
A|---------------------|
E|---5-5---5-----------|

I want to post or [tab]
guest
You may want to rate the tab now too:
select rating
Please do not post tabs as comments. Select "correction" instead!