Oops, an error
Loading. Please wait.

The Other Side solo tab

version 1
version 1

Solo

Whole song

6,558 views 6 this week
9 commentsread comments
1 2 3 4 5
x 3
add to favorites
×
Save as Personal and add changes to this tab that will be seen only by you. Learn more ›
×
You can save this tab as Personal to edit and correct it or add notes. All changes will be seen only by you. Learn more »
launch autoscroll
font size
0
reset
how to read this tab
guitar tuner
edit
Autoscroll
slow
fast
+/-
esc
set tempo
stop
-------------------------------------------------------------------------------
                             "The Other Side" solo - Aerosmith
-------------------------------------------------------------------------------
Tabbed by:[travis]
Email: syn_gates_punk14@msn.com

Tuning: Standard (E A D G B E) low to high.

                                                        1                 1              1
e|-----------------------------------------------------------------------------------------------12--------|
B|---------------------------------------------------15-------------------15b---15~~--12------12-----15p12-|
G|-----------------------------------------------12--14-14b---12~~-----------------------14b---------------|
D|-14-14-14-14-14-14-14--------14-14-14-14-14-14--------------------14p12----------------------------------|
A|---------------------------------------------------------------------------------------------------------|
E|-----------------------12--------------------------------------------------------------------------------|

                                                                  .5
e|----12--------------------------------------------------------------------14~-----------------------|
B|----12----------------------------------------------------------14b---12--14~-------------12--------|
G|-14----12-14p12----12--------------------------------12--14p12--14b---12--14~--12--14p12--12--------|
D|----------------14----14p12--------------------------12--------------------------14-----14----14p12-|
A|----------------------------14p12-10-12p10-----7h/14------------------------------------------------|
E|-------------------------------------------12-------------------------------------------------------|

    .5                 .5                1
e|-15------------------15----12------12------12------------|
B|-14b----12-15p12-----14b------15\-/12-12---12-12--12-----|
G|----------------12--------------------14b-----12--12-----|
D|------------------------------------------------------14-|
A|---------------------------------------------------------|
E|---------------------------------------------------------|


e|----------------------------0----------------------------0-|
B|----------------------------0----------------------------0-|
G|------------------0h1---2h4---------------------0h1--2h4---|
D|-----2-------2p0------2------------2-------2p0------2------|
A|-0-2---2-0-2-------------------0-2---2-0-2-----------------|
E|-----------------------------------------------------------|
   ...........                   ...........

                          _________________________________
     1                    1
e|--17b---17--15---------19b----19b---19b----19b--19b----19---15-------------------------|
B|-----------------17p15--------19b---19b----19b--19b---------15--17---17p15-----17---17-|
G|---------------------------------------------------------------------------16--16------|
D|---------------------------------------------------------------------------------------|
A|---------------------------------------------------------------------------------------|
E|---------------------------------------------------------------------------------------|
   *For the bend above that has the 1____________ that means keep that bend while
    picking those notes and end that bend at the end of the ________.


    2       2                                              1
e|---------------------------12-----12--------12----12-12---------12-12-12-12-12-12--|
B|-17b-----17b---17~~-17\----12--12-12--15p12-12-12-12-12-15b--12-12-12-12-12--------|
G|-----------------------/12---------------------------------------------------------|
D|-----------------------------------------------------------------------------------|
A|-----------------------------------------------------------------------------------|
E|-----------------------------------------------------------------------------------|


e|-12--12--15-15--15--15--15--15--15p12--|
B|-12--12--14-14--14--14--14--14--14p12--|
G|---------------------------------------|
D|---------------------------------------|
A|---------------------------------------|
E|---------------------------------------|


h = hammer on
p = pull off
... = palm mute
b = bend
r = release bend
~ = ring out/ vibrato
# above measure is what step the bend is.
1 = one step bend
.5 = half step bend
.75 = three fourths bend
.25 = quarter bend
1.5 = one and a half step bend.
2 = two step bend. 


There you have it. Pretty advanced. Rate it and comment it.
Aerosmith rocks!!!
-[travis]

            
            
Suggest correction
Creating personal tab
Creating personal tab
You can edit any tab online and save it as your Personal.

You can edit, replace or remove any tab part or add personal notes – all changes will be seen only by you.

Personal tabs can be accessed anytime from any device, even offline.
Learn more »
Give kudos to tab author, rate the tab!
1 2 3 4 5
comments
print report bad tab
9 comments total. Showing first comments.
-2 reply
patjim1517 30 Jun 28, 2007 05:13 PM

wrong band buddy]

-2 reply
patjim1517 30 Jun 28, 2007 05:14 PM

tibs

0 reply
[travis] 2,913 Jun 30, 2007 01:23 AM

NO. I'm Right. Aerosmith did do this song. "The Other Side." !!!

guest
You may want to rate the tab now too:
select rating
Wanna post a correction for this tab? Suggest correction