Oops, an error
Loading. Please wait.

Train Kept A Rollin Tab

version 1
version 1

Whole song

Interactive

34,683 views 42 this week
1 commentread comment
1 2 3 4 5
worth learning
x 9
add to favorites
launch autoscroll
font size
0
reset
how to read this tab
guitar tuner
Tab Pro tools
  • play this tab
  • loop segment
  • change instrument
  • show fretboard
  • metronome
×
Best way to learn
"Train Kept A Rollin"
Autoscroll
slow
fast
+/-
esc
set tempo
stop
                               Train Kept A Rollin' 
                                    Aerosmith
                                "Get Your Wings"

  Intro:   Play Twice
e:----------------------------|   
B:--15~~~-----------12--------|
G:--14b(16r15.5b14)---12---9--|
D:----------------------12^9--|
A:----------------------------|
E:----------------------------|
 
 
   Riff 1
e:--------------------|--------|--------------------|-----------------|
B:--------------------|--------|--------------------|-----------------|
G:--------------------|-Play---|--------------------|-----------------|
D:-5--5-5-5-5--5-5---5^-Twice--^-7--7-7-7-7--7-7--7\|-5--5-5-5-5--5-5\|
A:-5--5-5-5-5--5-5---5|--------|-7--7-7-7-7--7-7--7\|-5--5-5-5-5--5-5\|
E:-3--0-0-3-3--0-3---0|--------|-5--0-0-5-5--0-5--0\|-3--0-0-3-3--0-3\|
                                                   
 
e:----------------------------|-------------|
B:----------------------------|-------------|
G:----------------------------|-Repeat-from-|
D:-7-7--7--7-9--99-9\7---5--4-|----Start----|
A:-7-7--7--7-9--99-9\7---5--4-|-------------|
E:-5-5--5--5^0--77-0\5---3--2-|-------------|
 
                                                
           Interlude 1:   6 Times
e:-------|--------------------------------------------|
B:-------|--------------------------------------------|
G:-------|--------------------------------------------|
D:-2-----|----------5-------------2-2------------2-2--|
A:-2-----|-----5-----^7^5---------2-2------------2-2--|
E:-0~~~--|-5^7--^7-------^7^5\3~--0-0--0--2--3~~-0-0--|
                                  . .            . .
 
 
    E  A  B  Chord Progression
e:-----5--7-------------------------------|---------|
B:-----5--7-------------------------------|-Back-to-|
G:-----6--8-------------------------------|-Riff-1--|
D:-----7--9-------------------------------|--Over---|
A:-----7--9-------------------------------|--Solo---|
E:--0--5\-7--7-8-9-10~~-10-11-12-13-15~~~-|---------|
 
Riff 2:  Same as Riff 1 but faster and less blues.  also the into the 
same but loose the ending of it.  the interlude 2 is the same but with 
out the 1st fast run.
 
Riff 1
Well, on a train, I met a dame,
She rather handsome, but kind of looked the same.
She was pretty, from New York City
I'm walkin' down that old fair lane,
I'm in heat, I'm in love,
But I just couldn't tell her so
 
I said, train kept a-rollin' all night long
Train kept a-rollin' all night long
Train kept a-rollin' all night long
Train kept a-rollin' all night long
With a "heave!", and a "ho!"
But I just couldn't tell her so, no, no, no... (lead)
 
Well, get along, sweet little woman get along
On your way, get along, sweet little woman get along
On your way,
I'm in heat, I'm in love,
But I just couldn't tell her so, no, no, no
 
(Interlude 1, and solo)
 
Drum role, lead, fast guitar.
 
Riff 2
Well, on a train, I met a dame,
She rather handsome, but kind of looked the same.
She was pretty, from New York City
I'm walkin' down that old fair lane,
I'm in heat, I'm in love,
But I just couldn't tell her so
 
I said, train kept a-rollin' all night long
Train kept a-rollin' all night long
Train kept a-rollin' all night long
Train kept a-rollin' all night long
With a "heave!", and a "ho!"
But I just couldn't tell her so, no, no, no
 
solo
 
Well, get along, sweet little woman get along
On your way, get along, sweet little woman get along
On your way,
I'm in heat, I'm in love,
But I just couldn't tell her  yah...ayh....
 
Interlude 2, solo
 
Riff 2
Well, we made a stop in Albequerque
She must'a thought I was a real cool jerk
Got off the train, and put her hands up
Lookin' so good jack couldn't let her go   oOOooo..
But I just couldn't tell her so
 
I said, train kept a-rollin' all night long  (lead)
Train kept a-rollin' all night long          (lead)
Train kept a-rollin' all night long          (lead)
Train kept a-rollin' all night long          (lead)
I'm in heat, I'm in love,
But I just couldn't tell her   ayh...ayh...
comments
print report bad tab
1 comment total.
0 reply
chea64 wrote on March 10 2008, 05:50 pm

e:----------------------------|-------------|
B:----------------------------|-------------|
G:----------------------------|-Repeat-from-|
D:-7-7--7--7-9--99-9\7---5--4-|----Start----|
A:-7-7--7--7-9--99-9\7---5--4-|-------------|
E:-5-5--5--5^0--77-0\5---3--2-|-------------|

at that part i just play
e:---------------------|-------------|
B:---------------------|-------------|
G:---------------------|-Repeat-from-|
D:-7---9----7---5---4--|----Start----|
A:-7---9----7---5---4--|-------------|
E:-5---5----5---3---2--|-------------|
i dont hear any of that other stuff in the song seems to fit better

I want to post or [tab]
guest
You may want to rate the tab now too:
select rating
Please do not post tabs as comments. Select "correction" instead!