Oops, an error
Loading. Please wait.

Train Kept A Rollin Tab

version 2
version 2

Whole song

Interactive

99,313 views 93 this week
9 commentsread comments
1 2 3 4 5
x 24
add to favorites
launch autoscroll
font size
0
reset
how to read this tab
guitar tuner
Autoscroll
slow
fast
+/-
esc
set tempo
stop
Help us to improve Ultimate-Guitar.com Take our survey!
×
Author
Difficulty
Transcribed by Duce1973| gozer@earthling.net, NOT ME!

 Words and Music by Tiny Bradshaw, Lois Mann & Howie Kay

Gtr I (E A D G B e) - 'Gtr.1'
Gtr II (E A D G B e) - 'Gtr.2'
Gtr III (E A D G B e) - 'Gtr.3'


[Intro]

 4/4
 
 Gtr I
                                |-3-|
    E     Q.       +E    E   e  S S S    H     +E  +E    E  E
e|-12---------------------------------|-----------------------|
B|-12---------------------------5p3p0-|-(0)----(0)-(0)--------|
G|-14b16r14b16====(14)r(14)-----0-----|-----------------------|
D|--------------------------(0)-------|-h2-----(2)-(2)S(18)---|
A|------------------------------------|-----------------------|
E|------------------------------------|-----------------------|


                                        3/4
                                                   \1/
                                 |-3-|
    E     Q       +E    E  E  e  S S S    Q   +E  +E   +Q
e|-12----------------------------------|---------------------||
B|-12----------------------------5p3p0-|-(0)--(0)-(0)--(0)---||
G|-14b16r14b16===(14)r(14)-------0-----|---------------------||
D|---------------------------(0)-------|-h2---(2)-(2)--(2)---||
A|-------------------------------------|---------------------||
E|-------------------------------------|---------------------||


[Solo 1]

  Moderate Rock Q=102
 4/4
                              |---3----|    |----3-----|
   Q       +Q          +Q     e     e  e    E  E    S  S  E  E    E   E  s  s   e

e|-15-------------------------12----------|------------------------------15-17--15-|
B|-15-------------------------------15-12-|--------------------------/17-----------|
G|-14b16r==(14)b16-----(14)---------------|-15-14---12h14p12-12\-------------------|
D|----------------------------------------|----------------------------------------|
A|----------------------------------------|----------------------------------------|
E|----------------------------------------|----------------------------------------|
 |
 | Gtr II
 |  E    Q         S S   e  E  S E.          E    Q           S  S e   E  S  E.
e|----------------------------------------|----------------------------------------|
B|----------------------------------------|----------------------------------------|
G|----------------------------------------|----------------------------------------|
D|----------------------------------------|----------------------------------------|
A|--5--------------2-2---5--5--2-5--------|--5----------------2--2-5---5--2--5-----|
E|--3--------------0-0---3--3--0-3--------|--3----------------0--0-3---3--0--3-----|


                 ~~~~~~~               ~~~~~~~
   |----3-----|
   S     +S   S  E  +E   E    S  S  S  S  +E.     S

e|-17b19r(17)p15-17-(17)-15h==17p15---------------15-|
B|----------------------------------17-17-(17)-------|
G|---------------------------------------------------|
D|---------------------------------------------------|
A|---------------------------------------------------|
E|---------------------------------------------------|
 |
 |  E             Q       S S  e     E      S  E.
e|---------------------------------------------------|
B|---------------------------------------------------|
G|---------------------------------------------------|
D|---------------------------------------------------|
A|--7---------------------2-2--7-----7------2--7-----|
E|--5---------------------0-0--5-----5------0--5-----|


   |--3--|           |--3--|        |--3--|  |--3--|
   S  S  S  S  S  a  S  S  S  S  S  S  S  S  S  S  S  S  S   S  S

e|-17p15----15--------------------------------------------------------|
B|-------17----17-15h17p15----15-12-----------------------------------|
G|-------------------------16-------15p14p12-14p12----14-----12-14b16-|
D|-------------------------------------------------14----14-----------|
A|--------------------------------------------------------------------|
E|--------------------------------------------------------------------|
 |
 |  E        Q                 S  S  e        E        S  E.
e|--------------------------------------------------------------------|
B|--------------------------------------------------------------------|
G|--------------------------------------------------------------------|
D|--------------------------------------------------------------------|
A|--5--------------------------2--2--5--------5--------2--5-----------|
E|--3--------------------------0--0--3--------3--------0--3-----------|


                                                    |--3--|
   +S   S  S  S  E  a      +S   +S      +E.    +S   S  S  S  S  S

e|---------12-------------------------------------------------------|
B|------12----15-12-15b17==(15)r(15)b17-(15)---(15)-12h15p12----12--|
G|-(14)------------------------------------------------------14-----|
D|------------------------------------------------------------------|
A|------------------------------------------------------------------|
E|------------------------------------------------------------------|
|
 |   E      Q                E           +E  E       E        E
e|------------------------------------------------------------------|
B|------------------------------------------------------------------|
G|------------------------------------------------------------------|
D|------------------------------------------------------------------|
A|---7-----------------------9-----------(9)-7-------5--------4-----|
E|---5-----------------------7-----------(7)-5-------3--------2-----|


           |---3----|              |--3--|  |---3---|
   a      +S   +S   S  T  T  T  T  S  S  S  S  S    S      H

e|-------------------------------------------------------------------||
B|-------------------------------------------------------------------||
G|-14b16==(14)r(14)p12-14p12h14p12----14----12-----------------------||
D|---------------------------------14----14----14p==12tr14h14--------||
A|-------------------------------------------------------------------||
E|-------------------------------------------------------------------||
 |
 |          E           Q                    S    S         e E S E.
e|-------------------------------------------------------------------||
B|-------------------------------------------------------------------||
G|-------------------------------------------------------------------||
D|-------------------------------------------------------------------||
A|----------5--------------------------------2----2---------5-5-2-5--||
E|----------3--------------------------------0----0---------3-3-0-3--||


[Verse 1]

    E  Q   S S e E S E.   E Q  S S e E S E.
e|----------------------|-------------------|
B|----------------------|-------------------|
G|----------------------|-------------------|
D|----------------------|-------------------|
A|--5------2-2-5-5-2-5--|-5----2-2-5-5-2-5--|
E|--3------0-0-3-3-0-3--|-3----0-0-3-3-0-3--|
 |
 |  Q    Q     H          E Q  S S e E S E.
e|----------------------|-------------------|
B|----------------------|-------------------|
G|----------------------|-------------------|
D|-12\------------------|-------------------|
A|----------------------|-5----2-2-5-5-2-5--|
E|----------------------|-3----0-0-3-3-0-3--|


   Gtrs I, II
   E Q  S S e E S E.   E Q  S S e E S E.   E Q  E +E  E E E
e|-------------------|-------------------|-------------------|
B|-------------------|-------------------|-------------------|
G|-------------------|-------------------|-------------------|
D|-------------------|-------------------|-------------------|
A|-7----2-2-7-7-2-7--|-5----2-2-5-5-2-5--|-7----9-(9)-7-5-4--|
E|-5----0-0-5-5-0-5--|-3----0-0-3-3-0-3--|-5----7-(7)-5-3-2--|


[Chorus]

   E Q  S S e      E S E.        E     Q     S S e E S E.   E Q  S S e E S E.
e|----------------------------||--------------------------|-------------------|
B|----------------------------||--------------------------|-------------------|
G|----------------------------||--------------------------|-------------------|
D|----------------------------||--------------------------|-------------------|
A|-5----2-2-5------5-2-5------||-5-----------2-2-5-5-2-5--|-5----2-2-5-5-2-5--|
E|-3----0-0-3------3-0-3------||-3-----------0-0-3-3-0-3--|-3----0-0-3-3-0-3--|
 |
 | Gtr II
 |                               |-3-|
 | H        E a    E S S  S S    S S S S S Q     H          E Q  S S e E S E.
e|----------------------------||--------------------------|-------------------|
B|----------------------------||--------------------------|-------------------|
G|------------2b4==2r2p0------||--------------------------|-------------------|
D|------------------------2p0h||=2p0h2p0------------------|-------------------|
A|----------------------------||--------------------------|-5----2-2-5-5-2-5--|
E|----------------------------||--------------------------|-3----0-0-3-3-0-3--|


   Gtrs I, II
   E Q  S S e E S E.   E Q  S S e E S E.
e|-------------------|-------------------|
B|-------------------|-------------------|
G|-------------------|-------------------|
D|-------------------|-------------------|
A|-7----2-2-7-7-2-7--|-5----2-2-5-5-2-5--|
E|-5----0-0-5-5-0-5--|-3----0-0-3-3-0-3--|


   E Q  E +E  E E E   E Q  S S e E S E.
e|------------------|--------------------||
B|------------------|--------------------||
G|------------------|--------------------||
D|------------------|--------------------||
A|-7----9-(9)-7-5-4-|-5----2-2-5-5-2-5---||
E|-5----7-(7)-5-3-2-|-3----0-0-3-3-0-3---||


[Solo 2]

  Gtr III
                 ~~             PM|~~               ~~~~~~~~~                PM
                                                                    |---3----|
  E  E      E    E   E  E E     a  E   E  e   E  a  E    +E   S  S  S  S     S  E

e|------------------------------------|--------------------------------------------|
B|---15b17-------15-----14------14p12-|--------------------------------------------|
G|------------------------------------|---14-----14p12---(12)----------------------|
D|------------------------------------|-----------------------14p12-14p12-------12-|
A|------------------------------------|--------------------------------------13----|
E|------------------------------------|--------------------------------------------|
 |
 | Gtrs I, II
 | E  S    S S S  S S e  E S E.         E  S S E     S S   e   E     S    E.
e|------------------------------------|--------------------------------------------|
B|------------------------------------|--------------------------------------------|
G|------------------------------------|--------------------------------------------|
D|------------------------------------|--------------------------------------------|
A|-5------------------5--5-2-5--------|-5------------2-2---5---5-----2----5--------|
E|-3--x----x-x-x--0-2-3--3-0-3--------|-3--x-x-x-----0-0---3---3-----0----3--------|


                                    PM
             |-----3------|  |--3---|
  E  a      +S   +S       S  S   S  S  S  S  S     +S   S  S  S  S   S  S

e|---------------------------------------------------------12----12--12-----|
B|------------------------------------------------------12----15--------12--|
G|---14b16==(14)r(14)p====12-14p=12----14-12-14b16-(14)---------------------|
D|----------------------------------14--------------------------------------|
A|--------------------------------------------------------------------------|
E|--------------------------------------------------------------------------|
 |
 | E          S        S      E         S  S  E          E     S  E.
e|--------------------------------------------------------------------------|
B|--------------------------------------------------------------------------|
G|--------------------------------------------------------------------------|
D|--------------------------------------------------------------------------|
A|-7------------------------------------2--2--7----------7-----2--7---------|
E|-5---------<5>------<5>----<5>--------0--0--5----------5-----0--5---------|


                    |--3--|  |------5------|  |--3--|
   a     +E   S  S  S  S  S  T  T  T    T  T  S  S  S  E     +S   S   S  S

e|-15b17-(15)-15-12-15-12-----------------------------------------12--------|
B|------------------------15p12-15p12h==15p12----12-------------------15-12-|
G|--------------------------------------------14----14-14b16-(14)-----------|
D|--------------------------------------------------------------------------|
A|--------------------------------------------------------------------------|
E|--------------------------------------------------------------------------|
 |
 |         E   S  S  E        S       S        e        E      S   E.
e|--------------------------------------------------------------------------|
B|--------------------------------------------------------------------------|
G|--------------------------------------------------------------------------|
D|--------------------------------------------------------------------------|
A|---------5------------------2-------2--------5--------5------2---5--------|
E|---------3---x--x--x--------0-------0--------3--------3------0---3--------|


                                          ~~~~~~~
                          |-----3------|            |--3--|
   a     +E   S   S      +S   +S       S  E  +Q     S  S  S  S  S    a     +E   S  S  S  
 a     +E     +H
|------------15---------------------------------------------------|---------------12------------------------||
|-15b17-(15)-----15b17==(15)r(15)p====12-15-(15)---12-15-12----12-|------------12----15p12-15b17-(15)---(15)||
|-----------------------------------------------------------14----|-14b16-(14)------------------------------||
|-----------------------------------------------------------------|-----------------------------------------||
|-----------------------------------------------------------------|-----------------------------------------||
|-----------------------------------------------------------------|-----------------------------------------||
 |
 |         E   S   S       S        S      E  +E  E  E        E      E   S  S  S  
 |         S  S   e  E S E.
e|-----------------------------------------------------------------|----------------------------------------||
B|-----------------------------------------------------------------|----------------------------------------||
G|-----------------------------------------------------------------|----------------------------------------||
D|-----------------------------------------------------------------|----------------------------------------||
A|---------7-------------------------------9--(9)-7--5--------4----|-5----------------------2--2---5--5-2-5--|
E|---------5--<5>-<5>-----<5>------<5>-----7--(7)-5--3--------2----|-3---x--x--x--x---------0--0---3--3-0-3--|


[Verse 2]

   Gtrs I, II
   E S S S S S S e E S E.   E S S E S S e E S E.   E  S   S   E  S S E E S E.
e|------------------------|----------------------|----------------------------|
B|------------------------|----------------------|----------------------------|
G|------------------------|----------------------|----------------------------|
D|------------------------|----------------------|----------------------------|
A|-5-------------5-5-2-5--|-5-------2-2-5-5-2-5--|-7-------------2-2-7-7-2-7--|
E|-3-x-x-x-x-0-2-3-3-0-3--|-3-x-x-x-0-0-3-3-0-3--|-5-<5>-<5>-<5>-0-0-5-5-0-5--|


   E S S E S S e E S E.   E  S   S   S   S  E +E  E E E
e|----------------------|-------------------------------|
B|----------------------|-------------------------------|
G|----------------------|-------------------------------|
D|----------------------|-------------------------------|
A|-5-------2-2-5-5-2-5--|-7-----------------9-(9)-7-5-4-|
E|-3-x-x-x-0-0-3-3-0-3--|-5-<5>-<5>-<5>-<5>-7-(7)-5-3-2-|


   E S S S S S S e E S E.
e|------------------------||
B|------------------------||
G|------------------------||
D|------------------------||
A|-5---------2-2-5-5-2-5--||
E|-3-x-x-x-x-0-0-3-3-0-3--||


 [Bridge]
                  2/4
   H..       S S   S S S S S S S S
e|---------------|-----------------|
B|---------------|-----------------|
G|---------------|-----------------|
D|---------------|-0---2p0---------|
A|-----------0h2-|---0-----2-1-0---|
E|-0-------------|---------------3-|


  4/4
               ~~~~~~
   S S E S S S S +H       S S Q  S S S S S S S S S S
e|----------------------|------------------------------||
B|----------------------|------------------------------||
G|----------------------|------------------------------||
D|----------------------|------------0---2p0-----------||
A|----------------------|--------0h2---0-----2-1-0-----||
E|-0-0-----0-2-3-(3)----|-0-0----------------------3---||


[Solo]

  Gtr III
                                 ~~~
                                            |--3--|
  Q     S E.       +Q   +Q     S Q..        S S   S S S S S S a   +S

e|----------------------------|----------------------------------------|
B|---------7b8======(7)r=(7)--|-5--------------------------------------|
G|---------7b9======(7)r=(7)--|-5--------------------5-------5-7b8-(7)-|
D|----------------------------|---7----------5h7p==5---7-5h7-----------|
A|----------------------------|----------------------------------------|
E|----------------------------|----------------------------------------|
 |
 | Gtrs I, II
 |                ~~~~~~~
 | S S E S S    S S +H          S S   Q  S S S   S   S S S S S      S
e|----------------------------|----------------------------------------|
B|----------------------------|----------------------------------------|
G|----------------------------|--------------0-------2p0---------------|
D|----------------------------|----------0h2-----2-------2-1-0---------|
A|---------0----2-3-(3)-------|-0-0---------------------------------3--|
E|-0-0------------------------|----------------------------------------|


             ~~~~~~~~~~~~
   S S E S   E.      +E  s s s s s s
e|---5-------------------8-5---------|
B|-5-5-----/10------(10)-----8-5-----|
G|-------------------------------8-7-|
D|-----------------------------------|
A|-----------------------------------|
E|-----------------------------------|
 |
 |                ~~~~~~~
 | S S E S   S  S S  +H
e|-----------------------------------|
B|-----------------------------------|
G|-----------------------------------|
D|-----------------------------------|
A|-0-0-------0--2-3--(3)-------------|
E|-----------------------------------|


               ~~                            ~~~~~~
   S S S S S S E   S S S S S S     S S   S S E +S  S S S  S      +S   +S       +S   +S  S 
 S S
e|-------------------------------------|-------------------------------------------------------|
B|-------5-----------------------------|---------------8-10b12==(10)r(10)b12==(10)r(10)p8-10p8-|
G|-6-5-7---5-----------5---7-5b5.5-----|-----------7h9-----------------------------------------|
D|-----------7-7---5-7---7---------7-5-|-7p5h7-(7)---------------------------------------------|
A|-------------------------------------|-------------------------------------------------------|
E|-------------------------------------|-------------------------------------------------------|
 |
 |                                                     ~~~~~~~~~
 | S S Q       S S S S S S S S     S S   S S E  S  S S S +H
e|-------------------------------------|-------------------------------------------------------|
B|-------------------------------------|-------------------------------------------------------|
G|-----------------0---2p0-------------|-------------------------------------------------------|
D|-------------0h2---2-----2-1-----0---|-------------------------------------------------------|
A|-0-0-------------------------------3-|-0-0---------------------------------------------------|
E|-------------------------------------|-----------0-2-3-(3)-----------------------------------|


        ~~~~~~
    S S E +E  S  S S  S  S      +S   +S      +S   S  S
e|-----------------------------------------------------|
B|-10-8------------------------------------------------|
G|------9-(9)------9----12b14==(12)r(12)b14-(12)p10----|
D|------------9h12---12-----------------------------12-|
A|-----------------------------------------------------|
E|-----------------------------------------------------|
 |
 |  S S Q     S  S S  S  S       S    S       S   S  S
e|-----------------------------------------------------|
B|-----------------------------------------------------|
G|-----------------------------------------------------|
D|-----------------0-----2p======0---------------------|
A|------------0h=2----0---------------2-------1---0----|
E|--0-0----------------------------------------------3-|


        ~                                ~~~~~~~~~~
   S  S E +E      S  S  S   S  S  a     +S   +Q
e|-------------------------12---------------------|
B|---------------------12-----12-15b17-(15)-(15)--|
G|-9h12p9-(9)\---12s14----------------------------|
D|------------------------------------------------|
A|------------------------------------------------|
E|------------------------------------------------|
 |
 |                   ~~~~~~
 | S  S E  S   S  S  S +H
e|------------------------------------------------|
B|------------------------------------------------|
G|------------------------------------------------|
D|------------------------------------------------|
A|------------------------------------------------|
E|-0--0--------0--2--3-(3)------------------------|


                                                               2/4
 ~~~~~~
                                                                             |--3--|
   +Q       +S   S  S  S  a     +E     a     +E    S  S  S  S    S  S  S  S  S  S  S  S  S

e|---------------12----12-15b17-(15)---15b16-(15)--12----------|----------------------------|
B|-(15)-----(15)----12--------------------------------15-12-15-|-12-------------------------|
G|-------------------------------------------------------------|----15p14-12-14p12----14----|
D|-------------------------------------------------------------|-------------------14----14-|
A|-------------------------------------------------------------|----------------------------|
E|-------------------------------------------------------------|----------------------------|
 |
 |   S  S Q          S  S         S  S         S S  S  S  S  S    S  S  E     Q
e|-------------------------------------------------------------|----------------------------|
B|-------------------------------------------------------------|----------------------------|
G|-------------------------------------------------------------|----------------------------|
D|--------------------------------0------------2p0-------------|----------------------------|
A|-------------------0h=2------------0--------------2--1--0----|----------------------------|
E|---0--0----------------------------------------------------3-|--0--0----------------------|


  4/4
                                                       ~~
    S  a     +S   S  S  S  a     +E.  a     +E   S  S  Q
e|------------------12------------------------------------|
B|---------------12----12-15b17-(15)-15b16-(15)-12----12--|
G|-12-14b16-(14)-----------------------------------14-----|
D|--------------------------------------------------------|
A|--------------------------------------------------------|
E|--------------------------------------------------------|
 |
 |  W
e|--------------------------------------------------------|
B|--------------------------------------------------------|
G|--4-----------------------------------------------------|
D|--4-----------------------------------------------------|
A|--2-----------------------------------------------------|
E|--------------------------------------------------------|


   |--3--|  |--3--|  |--3--|  |--3--|  |---3---|  |---3---|
   S  S  S  S  S  S  S  S  S  S  S  S  S  S    S  S  S    S  T  T  a     +T   T  S  S

e|-------12h15p12----------------------------------------------------------------12-12-|
B|-12h15----------15p12-15p12-15-12----12-------------------------------------12-12-12-|
G|----------------------------------14----14p==12-14p12------14p12-14b16-(14)----------|
D|--------------------------------------------------------14---------------------------|
A|-------------------------------------------------------------------------------------|
E|-------------------------------------------------------------------------------------|
 |
 |  E        E        E        E        S    S     S    S     S            S      S  S
e|-------------------------------------------------------------------------------------|
B|-------------------------------------------------------------------------------------|
G|--4--------5--------6--------7--------8----8-----9----9----10-----------10-----11-11-|
D|--4--------5--------6--------7--------8----8-----9----9----10-----------10-----11-11-|
A|--2--------3--------4--------5--------6----6-----7----7-----8------------8------9--9-|
E|-------------------------------------------------------------------------------------|


                                                                                     
                   ~~~~~~~                     ~~~~  |
                                                     |
    a      +Q       +Q     +S   S S  S  S  a     +E.  |
 S  S  S  a     +S   E  +S   a     +E   S|
e|-15b17==(15)-----(15)r==(15)-12------12------------||
B|----------------------------------12----15b17-(15)-||
G|---------------------------------------------------||
D|---------------------------------------------------||
A|---------------------------------------------------||
E|---------------------------------------------------||
 |
 |          S   E.   E  E   E     E     S         E.  |
 S  S  E             E   S          E.|
e|---------------------------------------------------||
B|---------------------------------------------------||
G|---------12--12\-----------------------------------||
D|---------12--12\-----------------------------------||
A|---------10--10\---2--2---5-----5-----2---------5--||
E|-------------------0--0---3-----3-----0---------3--||


                |---3----|  |--3--|
  S  S  a      +S   +S   S  S  S  S 

e|-12---------------------------------------------------------------------------|
B|----12------------------------------14----12-------------------------------15-|
G|-------14b16==(14)r(14)p12-14p12-------------12b13-(12)---------16b18-(16)----|
D|---------------------------------14----14---------------14-(14)---------------|
A|------------------------------------------------------------------------------|
E|------------------------------------------------------------------------------|
 |
 |  E             Q                   
 |
e|------------------------------------------------------------------------------|
B|------------------------------------------------------------------------------|
G|------------------------------------------------------------------------------|
D|------------------------------------------------------------------------------|
A|--5----------------------------------2--2--5-------------5---2----------5-----|
E|--3----------------------------------0--0--3-------------3---0----------3-----|


                                                   ~~~~
    S  S  a     +E   +E   S  S  S  S  S  S  a     +Q
e|-15----17b19-(17)-(17)-17-16-17-16-17p16-17b19-(17)----|
B|----15-------------------------------------------------|
G|-------------------------------------------------------|
D|-------------------------------------------------------|
A|-------------------------------------------------------|
E|-------------------------------------------------------|
 |
 |  E            Q        S  S  E     E            S  E.
e|-------------------------------------------------------|
B|-------------------------------------------------------|
G|-------------------------------------------------------|
D|-------------------------------------------------------|
A|--7---------------------2--2--7-----7------------2--7--|
E|--5---------------------0--0--5-----5------------0--5--|


            |---3----|  |--3--|  |--3--|  |---3---|  |--3--|     |--3--|  |-----3-----|
   a       +S   +S   S  S  S  S  S  S  S  S  S    S  S  S  S  a  S  S  S  S  S     a  S  E

e|-17pb19==(17)r(17)p15-17p15----15---------------------------------------------------------|
B|----------------------------17----17p15-17-15------15----------------------------------17-|
G|------------------------------------------------16----16p14p12-14-12----14-------12h13----|
D|---------------------------------------------------------------------14----14-------------|
A|------------------------------------------------------------------------------------------|
E|------------------------------------------------------------------------------------------|
 |
 |           E           Q                 S    S     E           E        S    E.
e|------------------------------------------------------------------------------------------|
B|------------------------------------------------------------------------------------------|
G|------------------------------------------------------------------------------------------|
D|------------------------------------------------------------------------------------------|
A|-----------5-----------------------------2----2-----5-----------5--------2----5-----------|
E|-----------3-----------------------------0----0-----3-----------3--------0----3-----------|


                                      ~~~~~~~~
   |---------3----------|
   E  E    a      +S   +S   S  S     +E   +Q     E  E

e|-15-17---17b19==(17)r(17)-15-17b19-(17)-(17)---17-15-|
B|-----------------------------------------------------|
G|-----------------------------------------------------|
D|-----------------------------------------------------|
A|-----------------------------------------------------|
E|-----------------------------------------------------|
 |
 |  E    Q                             E   +E  E  E  E
e|-----------------------------------------------------|
B|-----------------------------------------------------|
G|-----------------------------------------------------|
D|-----------------------------------------------------|
A|--7----------------------------------9---(9)-7--5--4-|
E|--5----------------------------------7---(7)-5--3--2-|


            ~~~~~~~~~~~~~~~~~~~~~~~
    a      +E.    S  +E   E    +Q     S  +E      S    a      +E   +E   Q  H
e|-22b24==(22)---22-(22)-22---(22)---22r(22)----19-|-22b24==(22)r(22)\---------||
B|-------------------------------------------------|---------------------------||
G|-------------------------------------------------|---------------------------||
D|-------------------------------------------------|---------------------------||
A|-------------------------------------------------|---------------------------||
E|-------------------------------------------------|---------------------------||
 |
 |          E  Q          S S   E  E  S   E.                  W
e|-------------------------------------------------|---------------------------||
B|-------------------------------------------------|---------------------------||
G|-------------------------------------------------|---------------------------||
D|-------------------------------------------------|---------------------------||
A|----------5-------------2-2---5--5--2------------|----------2----------------||
E|----------3-------------0-0---3--3--0---3b3.5----|----------0----------------||


[Interlude 1]

   Faster Q=198
                Gtr II
   Wx8           a       E    a      +Q.    +H        W
e|------------|---------15-------------------------|-----------|
B|------------|---------12-------------------------|-----------|
G|------------|-14b16==(14)r(14)b16-(14)---(14)----|-14--------|
D|------------|------------------------------------|-----------|
A|------------|------------------------------------|-----------|
E|------------|------------------------------------|-----------|


    a       E    a       +Q.    +H        +H.       +E  E
e|---------15--------------------------|--------------------|
B|---------12--------------------------|--------------------|
G|-14b16==(14)r(14)b16==(14)---(14)----|-(14)r=====(14)-----|
D|-------------------------------------|--------------------|
A|-------------------------------------|--------------------|
E|-------------------------------------|--------------------|


    a       E    a       +Q.    +H        +H      +Q.   E
e|---------15--------------------------|------------------|
B|---------12--------------------------|------------------|
G|-14b16==(14)r(14)b16==(14)---(14)----|-(14)r===(14)-----|
D|-------------------------------------|------------------|
A|-------------------------------------|------------------|
E|-------------------------------------|------------------|


    a      +E    a   +Q.        +H        +H.       +E   E
e|-------------------------------------|-------------------||
B|-------------------------------------|-------------------||
G|-14b16==(14)r(14)-(14)b16====(14)----|-(14)r=====(14)\---||
D|-------------------------------------|-------------------||
A|-------------------------------------|-------------------||
E|-------------------------------------|-------------------||


[Verse 3]

     Gtrs I, II
     Q  E E E E E E   Q  Q  E E E E   Q  E E E E E E   Q  Q  E E E E
e||-----------------|---------------|----------------|----------------|
B||o----------------|---------------|----------------|----------------|
G||-----------------|---------------|----------------|----------------|
D||-----------------|---------------|----------------|----------------|
A||o-5--2-5-2-2-5-2-|-5--5--2-5-2-2-|-5--2-5-2-2-5-2-|-5--5--2-5-2-2--|
E||--3--0-3-0-0-3-0-|-3--3--0-3-0-0-|-3--0-3-0-0-3-0-|-3--3--0-3-0-0--|


   Q  E E E E E E   q  Q  E E E E   Q  E E E E E E   q  Q  E E E E
e|----------------|---------------|----------------|---------------|
B|----------------|---------------|----------------|---------------|
G|----------------|---------------|----------------|---------------|
D|----------------|---------------|----------------|---------------|
A|-7--7-7-7-7-7-7-|-7--7--7-7-7-7-|-5--2-5-2-2-5-2-|-5--5--2-5-2-2-|
E|-5--0-5-0-0-5-0-|-5--5--0-5-0-0-|-3--0-3-0-0-3-0-|-3--3--0-3-0-0-|


                ~~~~~~~~
   E E E E E Q  E   +Q   Q  Q  Q    Q  E E E E E E   Q  Q  E E E E
e|----------------|---------------|----------------|----------------||
B|----------------|---------------|----------------|---------------o||
G|----------------|---------------|----------------|----------------||
D|----------------|---------------|----------------|----------------||
A|-7-7---7---7--9-|-(9)--7--5--4--|-5--2-5-2-2-5-2-|-5--5--2-5-2-2-o||
E|-5-5---5---5--7-|-(7)--5--3--2--|-3--0-3-0-0-3-0-|-3--3--0-3-0-0--||


  Chorus
   Q  E E E E E E   Q  Q  E E E E   Q  E E E E E E   Q  Q  E E E E
e|----------------|---------------|----------------|---------------|
B|----------------|---------------|----------------|---------------|
G|----------------|---------------|----------------|---------------|
D|----------------|---------------|----------------|---------------|
A|-5--2-5-2-2-5-2-|-5--5--2-5-2-2-|-5--2-5-2-2-5-2-|-5--5--2-5-2-2-|
E|-3--0-3-0-0-3-0-|-3--3--0-3-0-0-|-3--0-3-0-0-3-0-|-3--3--0-3-0-0-|


   Q  E E E E E E   q  Q  E E E E   Q  E E E E E E   q  Q  E E E E
e|----------------|---------------|----------------|---------------|
B|----------------|---------------|----------------|---------------|
G|----------------|---------------|----------------|---------------|
D|----------------|---------------|----------------|---------------|
A|-7--7-7-7-7-7-7-|-7--7--7-7-7-7-|-5--2-5-2-2-5-2-|-5--5--2-5-2-2-|
E|-5--0-5-0-0-5-0-|-5--5--0-5-0-0-|-3--0-3-0-0-3-0-|-3--3--0-3-0-0-|


   W                 W              W
e|----------------|---------------|----------------|
B|----------------|---------------|----------------|
G|----------------|---------------|----------------|
D|----------------|---------------|----------------|
A|----------------|---------------|----------------|
E|----------------|---------------|----------------|
 |
 | Gtrs I, II
 |              ~~~~~~~~
 | E E E E E Q  E   +Q   Q  Q  Q    Q  E E E E E E
e|----------------|---------------|----------------|
B|----------------|---------------|----------------|
G|----------------|---------------|----------------|
D|----------------|---------------|----------------|
A|-7-7---7---7--9-|-(9)--7--5--4--|-5--2-5-2-2-5-2-|
E|-5-5---5---5--7-|-(7)--5--3--2--|-3--0-3-0-0-3-0-|


   Gtr III
   H     E  a       E   +E       +E
e|-----------------------------------||
B|-----------------15----------------||
G|---------14b16==(14)r(14)b16==(14)-||
D|-----------------------------------||
A|-----------------------------------||
E|-----------------------------------||
 |
 | Q  Q  E          E    E        E
e|-----------------------------------||
B|-----------------------------------||
G|-----------------------------------||
D|-----------------------------------||
A|-5--5--2----------5----2--------2--||
E|-3--3--0----------3----0--------0--||


[Solo 3]

    E  E  +E       +E   E  E  +E       +E     E  E  +E       +E   E  E  +E       +E
e|-15------------------15------------------|-15------------------15------------------|
B|----15------------------15---------------|----15------------------15---------------|
G|----14r(14)b16==(14)----14r(14)b16==(14)-|----14r(14)b16==(14)----14r(14)b16==(14)-|
D|-----------------------------------------|-----------------------------------------|
A|-----------------------------------------|-----------------------------------------|
E|-----------------------------------------|-----------------------------------------|
 |
 |  Q      E        E   E  E   E        E     Q      Q            E  E   E        E
e|-----------------------------------------|-----------------------------------------|
B|-----------------------------------------|-----------------------------------------|
G|-----------------------------------------|-----------------------------------------|
D|-----------------------------------------|-----------------------------------------|
A|--5------2--------5---2--2---5--------2--|--5------5------------2--5---2--------2--|
E|--3------0--------3---0--0---3--------0--|--3------3------------0--3---0--------0--|

                                                                  ~~
                                             |---3---|
   E  E  +E       +E   E  E  +E       +E     E  +E   E  E  E  E  Q    E

e|---------------------12------------------|-----------------------------|
B|-15-15---------------12-15---------------|-15---------14----12---------|
G|-14-14r(14)b16==(14)----14r(14)b16==(14)-|-14r(14)p12-14----12------12-|
D|-----------------------------------------|---------------14----14------|
A|-----------------------------------------|-----------------------------|
E|-----------------------------------------|-----------------------------|
 |
 |  Q      E        E   E  E   E        E     Q          Q     E  E E  E
e|-----------------------------------------|-----------------------------|
B|-----------------------------------------|-----------------------------|
G|-----------------------------------------|-----------------------------|
D|-----------------------------------------|-----------------------------|
A|--5------2--------5---2--2---5--------2--|--5----------5-----2--5-2--2-|
E|--3------0--------3---0--0---3--------0--|--3----------3-----0--3-0--0-|


    a      +E   a     +E   E  a      +E   a     +E   E  a      +E   a     +E  
 +E   a     +E   E  a      +E   a     +E   E  E|
e|------------------------12------------------------12------------------------|
B|-15b17==(15)r15b17-(15)----15b17==(15)r15b17-(15)----15b17==(15)r15b17-(15)-|
G|----------------------------------------------------------------------------|
D|----------------------------------------------------------------------------|
A|----------------------------------------------------------------------------|
E|----------------------------------------------------------------------------|
 |                                                                         
 |          Q              E          E          E   E          E          E  
 |          Q              E          E   E  E|                               
e|----------------------------------------------------------------------------|
B|----------------------------------------------------------------------------|
G|----------------------------------------------------------------------------|
D|----------------------------------------------------------------------------|
A|----------7--------------7----------7----------7---7----------7----------7--|
E|----------5--------------0----------5----------0---0----------5----------0--|


   E  a     

e|-12------------------------12------------------------12----|
B|----15b17==(15)r15b17-(15)----15b17==(15)r15b17-(15)----12-|
G|-----------------------------------------------------------|
D|-----------------------------------------------------------|
A|-----------------------------------------------------------|
E|-----------------------------------------------------------|
 |
 |  q        
 |
e|-----------------------------------------------------------|
B|-----------------------------------------------------------|
G|-----------------------------------------------------------|
D|-----------------------------------------------------------|
A|--7---------------------7--------------7----------7---7--7-|
E|--5---------------------5--------------0----------5---0--0-|


                                                         |--3--|
   a     +Q.     a     +E   +Q     a      +Q       +Q    E  E  E  E  E  a      +E   +E

e|-15b19-(15)----15b17-(15)-(15)---15b17==(15)r==|=(15)--12h15p12----12------------------|
B|-----------------------------------------------|----------------15----15b17==(15)r(15)-|
G|-----------------------------------------------|---------------------------------------|
D|-----------------------------------------------|---------------------------------------|
A|-----------------------------------------------|---------------------------------------|
E|-----------------------------------------------|---------------------------------------|
 |
 |         Q   E         E    E  E          E  E     q    Q        E  E          E    E
e|-----------------------------------------------|---------------------------------------|
B|-----------------------------------------------|---------------------------------------|
G|-----------------------------------------------|---------------------------------------|
D|-----------------------------------------------|---------------------------------------|
A|---------5---2---------5----2--2----------5--2-|---5----5--------2--5----------2----2--|
E|---------3---0---------3----0--0----------3--0-|---3----3--------0--3----------0----0--|


                                                                    ~~~~~~~~~~~~~
    +S   S  S  S  S  S  S      +S   +E   S  S  S  S  S  S    S   S  E  +Q    +Q    E     +E
e|--------------------------------------------------------|----------------------------------|
B|-(15)p12h15p12----12------------------------------------|----------------------------------|
G|---------------14----14b16==(14)-(14)r14p12-14p12-14p12-|-----12----------------14b16-(14)-|
D|--------------------------------------------------------|-14-----14-(14)--(14)-------------|
A|--------------------------------------------------------|----------------------------------|
E|--------------------------------------------------------|----------------------------------|
 |
 |                                                   ~~~~~~~~~~~
 |   E      E     E     E            E   Q           E      +Q          Q     Q    Q
e|--------------------------------------------------------|----------------------------------|
B|--------------------------------------------------------|----------------------------------|
G|--------------------------------------------------------|----------------------------------|
D|--------------------------------------------------------|----------------------------------|
A|---7------7-----------7----------------7-----------9----|-(9)---------7-----5----4---------|
E|---5------5-----------5----------------5-----------7----|-(7)---------5-----3----2---------|


                                            ~~~~~~~~~~
    E  E  a      +E   +E   E  E  E  a      +E     +W
e|----12------------------12-------------------|--------------------||
B|-12----15b17==(15)r(15)----15-12-15b17==(15)-|-(15)---------------||
G|---------------------------------------------|--------------------||
D|---------------------------------------------|--------------------||
A|---------------------------------------------|--------------------||
E|---------------------------------------------|--------------------||
 |
 |  Q             E    E   E  E  E          E      Q   Q  E E E E
e|---------------------------------------------|--------------------||
B|---------------------------------------------|--------------------||
G|---------------------------------------------|--------------------||
D|---------------------------------------------|--------------------||
A|--5-------------2----5---2--2--5----------2--|---5---5--2-5-2-2---||
E|--3-------------0----3---0--0--3----------0--|---3---3--0-3-0-0---||


[Verse 4]

    +Q    Q   H         W               W                W
e|--------------------|---------------|----------------|---------------|
B|-(15)\--------------|---------------|----------------|---------------|
G|--------------------|---------------|----------------|---------------|
D|--------------------|---------------|----------------|---------------|
A|--------------------|---------------|----------------|---------------|
E|--------------------|---------------|----------------|---------------|
 |
 |   Q    E E E E E E   q  Q  E E E E   Q  E E E E E E   q  Q  E E E E
e|--------------------|---------------|----------------|---------------|
B|--------------------|---------------|----------------|---------------|
G|--------------------|---------------|----------------|---------------|
D|--------------------|---------------|----------------|---------------|
A|---5----2-5-2-2-5-2-|-5--5--2-5-2-2-|-5--2-5-2-2-5-2-|-5--5--2-5-2-2-|
E|---3----0-3-0-0-3-0-|-3--3--0-3-0-0-|-3--0-3-0-0-3-0-|-3--3--0-3-0-0-|


   Gtrs I, II
   Q  E E E E E E   q  Q  E E E E   Q  E E E E E E   q  Q  E E E E
e|----------------|---------------|----------------|---------------|
B|----------------|---------------|----------------|---------------|
G|----------------|---------------|----------------|---------------|
D|----------------|---------------|----------------|---------------|
A|-7--7-7-7-7-7-7-|-7--7--7-7-7-7-|-5--2-5-2-2-5-2-|-5--5--2-5-2-2-|
E|-5--0-5-0-0-5-0-|-5--5--0-5-0-0-|-3--0-3-0-0-3-0-|-3--3--0-3-0-0-|


                ~~~~~~~~
   E E E E E Q  E   +Q   Q  Q  Q    Q  E E E E E E   Q  Q  E E q
e|----------------|---------------|----------------|--------------||
B|----------------|---------------|----------------|--------------||
G|----------------|---------------|----------------|--------------||
D|----------------|---------------|----------------|--------------||
A|-7-7---7---7--9-|-(9)--7--5--4--|-5--2-5-2-2-5-2-|-5--5--2-2-5--||
E|-5-5---5---5--7-|-(7)--5--3--2--|-3--0-3-0-0-3-0-|-3--3--0-0-3--||


[Interlude]

                             ~~~~~~~~~~~~~~~~~~~~~           ~~~~~~~~
   W          +H     +E  E E E   +W           +H     +E  E E E   +W
e|----------|------------------|------------|------------------|--------|
B|-0--------|-(0)----(0)-------|------------|------------------|--------|
G|----------|------------------|------------|------------------|--------|
D|-2--------|-(2)----(2)-------|------------|------------------|--------|
A|-2--------|-(2)----(2)-------|------------|------------------|--------|
E|-0--------|-(0)----(0)-0-2-3-|-(3)--------|-(3)----(3)-0-2-3-|-(3)----|


   Gtr III
                                                        ~~~~~~~
   H     E  E E E       +W           +H         +Q     +Q
e|--------------------|------------|--------------------------|
B|------------7-------|------------|--------------------------|
G|----------9---9b11==|=(9)--------|-(9)b12=====(9)r==([9])---|
D|--------------------|------------|--------------------------|
A|--------------------|------------|--------------------------|
E|--------------------|------------|--------------------------|
 |
 | Gtrs I, II
 |              ~~~~~~~~~~~~~~~~~~~~~~~~~~~~~~~~~~~~~       ~~~
 | H    +E  E E E       +W           +H         +E  E   E   E
e|--------------------|------------|--------------------------|
B|--------------------|------------|--------------------------|
G|--------------------|------------|--------------------------|
D|--------------------|------------|--------------------------|
A|--------------------|------------|--------------------------|
E|-3----(3)-0-2-3-----|-(3)--------|-(3)--------(3)-0---2---3-|


  ~~~~~~~~~~~~~~~~~~~~~~
    +W             +W
e|--------------|--------------------|
B|--------------|--------------------|
G|-([9])--------|-([9])--------------|
D|--------------|--------------------|
A|--------------|--------------------|
E|--------------|--------------------|
 |
 |~~~~~~~~~~~~~~~~~~~~~~~~~~~~~
 |  +W             +H      +E  E E E
e|--------------|--------------------|
B|--------------|--------------------|
G|--------------|--------------------|
D|--------------|--------------------|
A|--------------|--------------------|
E|--(3)---------|--(3)-----(3)-0-2-3-|


     ~~~~~~~~~~~~~~~~~~~
    +W             +W                   +H           +H
e|--------------|--------------------|-----------------------|
B|--------------|--------------------|-----------------------|
G|-([9])--------|-([9])--------------|-([9])b12=====([9])----|
D|--------------|--------------------|-----------------------|
A|--------------|--------------------|-----------------------|
E|--------------|--------------------|-----------------------|
 |
 |   ~~~~~~~~~~~~~~~~~~~~~~~~~~    ~~~~~~~~~~~~~~~~~~~~~~~~~~~
 |  +W             +H      +E  E E E    +W
e|--------------|--------------------|-----------------------|
B|--------------|--------------------|-----------------------|
G|--------------|--------------------|-----------------------|
D|--------------|--------------------|-----------------------|
A|--------------|--------------------|-----------------------|
E|--(3)---------|--(3)-----(3)-0-2-3-|--(3)------------------|


    +W                   +W             +Q      +Q          +Q      +Q
e|--------------------|--------------|-------------------------------------||
B|--------------------|--------------|-------------------------------------||
G|-([9])--------------|-([9])--------|-([9])---([9])b11====([9])r==([9])---||
D|--------------------|--------------|-------------------------------------||
A|--------------------|--------------|-------------------------------------||
E|--------------------|--------------|-------------------------------------||
 |
 |~~~~~~~~~~~~~~    ~~~~~~~~~~
 |  +H      +E  E E E    +W              E   E   E       E   E   E   Q
e|--------------------|--------------|-------------------------------------||
B|--------------------|--------------|---3---3-----------3-------3---------||
G|--------------------|--------------|---4---4-----------4-------4---------||
D|--------------------|--------------|---5---5-----------5-------5---------||
A|--------------------|--------------|---5---5-----------5-------5---------||
E|--(3)-----(3)-0-2-3-|--(3)---------|---3---3-----------3-------3---------||


[Solo 4]

   a Q  Q   E E Q     E E E E H
e|------0-------0---|-----------------|
B|------------------|-----------------|
G|-2s4------2h4-----|-2p0-------------|
D|------------------|-----2p0-2-------|
A|------------------|-----------------|
E|------------------|-----------------|
 |
 |   Q  E E E E E E   Q   Q   E E E E
e|------------------|-----------------|
B|------------------|-----------------|
G|------------------|-----------------|
D|------------------|-----------------|
A|---5--2-5-2-2-5-2-|-5---5---2-5-2-2-|
E|---3--0-3-0-0-3-0-|-3---3---0-3-0-0-|


                            ~~~~~~~~
   a Q  E E E E E E   Q    +Q   +H
e|------0---0-------|-----------------------|
B|--------0---8p7p5-|-7b8--(7)--(7)---------|
G|-2s4--------------|-----------------------|
D|------------------|-----------------------|
A|------------------|-----------------------|
E|------------------|-----------------------|
 |
 |   Q  E E E E E E   Q     Q    E  E E E
e|------------------|-----------------------|
B|------------------|-----------------------|
G|------------------|-----------------------|
D|------------------|-----------------------|
A|---5--2-5-2-2-5-2-|-5-----5----2--5-2-2---|
E|---3--0-3-0-0-3-0-|-3-----3----0--3-0-0---|


                     |---3---|
  E  a     +Q     E  E  E    E  E  E    a      +Q.     +E   E  E  E  a     +E

e|------------------------------------|-----------------------------------------|
B|----------------12------------------|-15b19==(15)r===(15)-12-15-12-15b17-(15)-|
G|---14b15-(14)------16p14p==12-14-12-|-----------------------------------------|
D|------------------------------------|-----------------------------------------|
A|------------------------------------|-----------------------------------------|
E|------------------------------------|-----------------------------------------|
 |
 | Q            E  E  E    E     E  E            q   Q       E  E  E         E
e|------------------------------------|-----------------------------------------|
B|------------------------------------|-----------------------------------------|
G|------------------------------------|-----------------------------------------|
D|------------------------------------|-----------------------------------------|
A|-7------------7--7--7----7-----7--7-|----------7---7-------7--7--7---------7--|
E|-5------------0--5--0----0-----5--0-|----------5---5-------0--5--0---------0--|


                 ~~~~~~~~~~~~~                       ~~~~~~~~~        ~~~~
                                       |-3-|
    +E   a      +Q.      +H           +Q   E  a     +Q    +E   a     +Q.
e|---------------------------------|------12----------------------------------|
B|-(15)-15b17==(15)-----(15)r======|=(15)----15b17-(15)--(15)-15b17-(15)------|
G|---------------------------------|------------------------------------------|
D|---------------------------------|------------------------------------------|
A|---------------------------------|------------------------------------------|
E|---------------------------------|------------------------------------------|
 |
 |   Q              E E   E  E E E     q             Q     E          E  E E
e|---------------------------------|------------------------------------------|
B|---------------------------------|------------------------------------------|
G|---------------------------------|------------------------------------------|
D|---------------------------------|------------------------------------------|
A|---5--------------2-5---2--2-5-2-|---5-------------5-----2----------5--2-2--|
E|---3--------------0-3---0--0-3-0-|---3-------------3-----0----------3--0-0--|


    a     +Q     a      +Q     +E   +E   E  a      +E     +E   E  E  E  E  E  E  E
e|-15b17-(15)---15b17==(15)---(15)r(15)-12-------------|------15-------------------|
B|-----------------------------------------------------|---------------------------|
G|-----------------------------------------14b16==(14)-|-(14)----14r14-12----12-14-|
D|-----------------------------------------------------|------------------14-------|
A|-----------------------------------------------------|---------------------------|
E|-----------------------------------------------------|---------------------------|
 |
 |                                                  ~~~~~~~~~~
 |         E  E          E  E   E    Q              E     +Q      Q     Q     Q
e|-----------------------------------------------------|---------------------------|
B|-----------------------------------------------------|---------------------------|
G|-----------------------------------------------------|---------------------------|
D|-----------------------------------------------------|---------------------------|
A|---------7--7-------------7--------7--------------9--|--(9)-----7-----5-----4----|
E|---------5--5-------------5--------5--------------7--|--(7)-----5-----3-----2----|


                 |-------3-------|
   a     +E   E  E  E    a      +E   +E   +S   S  S  S  E    E  S  S  E  E  E  E  Q

e|------------12-------------------------------------------|-----------------------------|
B|---------------15p12-------------------------------------|-----------------------------|
G|-14b16-(14)------------14b16==(14)-(14)r(14)p12-14p12----|-12--------------------------|
D|------------------------------------------------------14-|----14p12----12-12-14-14-----|
A|---------------------------------------------------------|----------14-----------------|
E|---------------------------------------------------------|-----------------------------|
 |
 |         Q      E    E               E    E      E     E    Q        Q     E  E  E E
e|---------------------------------------------------------|-----------------------------|
B|---------------------------------------------------------|-----------------------------|
G|---------------------------------------------------------|-----------------------------|
D|---------------------------------------------------------|-----------------------------|
A|---------5------2----5---------------2----2------5-----2-|--5--------5-----2--5--2-2---|
E|---------3------0----3---------------0----0------3-----0-|--3--------3-----0--3--0-0---|


    W                         +W
e|-------------------------|--------------------------|
B|-12tr15b13===============|=(12tr15)b14==============|
G|-------------------------|--------------------------|
D|-------------------------|--------------------------|
A|-------------------------|--------------------------|
E|-------------------------|--------------------------|
 |
 |  Q          E E E E E E     Q           Q  E E E E
e|-------------------------|--------------------------|
B|-------------------------|--------------------------|
G|-------------------------|--------------------------|
D|-------------------------|--------------------------|
A|--5----------2-5-2-2-5-2-|---5-----------5--2-5-2-2-|
E|--3----------0-3-0-0-3-0-|---3-----------3--0-3-0-0-|
 |
 | Gtr II
 |  H.                 E E     Q           Q  E E E E
e|--3----------------------|--------------------------|
B|--3----------------------|--------------------------|
G|-------------------------|--------------------------|
D|-------------------------|--------------------------|
A|---------------------5-2-|---5-----------5--2-5-2-2-|
E|---------------------3-0-|---3-----------3--0-3-0-0-|


    +H            +H               +H               +H
e|------------------------------|---------------------------------|
B|-(12tr15)r=====(12tr15)-------|-(12tr15)b14======(12tr15)-------|
G|------------------------------|---------------------------------|
D|------------------------------|---------------------------------|
A|------------------------------|---------------------------------|
E|------------------------------|---------------------------------|
 |
 |   Q       E E   E      E E E     Q           Q    E      E E E
e|------------------------------|---------------------------------|
B|------------------------------|---------------------------------|
G|------------------------------|---------------------------------|
D|------------------------------|---------------------------------|
A|---5-------2-5---2------2-5-2-|---5-----------5----2------5-2-2-|
E|---3-------0-3---0------0-3-0-|---3-----------3----0------3-0-0-|
 |
 |   Q       E E   E      E E E     Q           Q    E      E E E
e|------------------------------|---------------------------------|
B|------------------------------|---------------------------------|
G|------------------------------|---------------------------------|
D|------------------------------|---------------------------------|
A|---5-------2-5---2------2-5-2-|---5-----------5----2------5-2-2-|
E|---3-------0-3---0------0-3-0-|---3-----------3----0------3-0-0-|


    +H            +H               +W
e|------------------------------|----------------------|
B|-(12tr15)------(12tr15)r======|=(12tr15)-------------|
G|------------------------------|----------------------|
D|------------------------------|----------------------|
A|------------------------------|----------------------|
E|------------------------------|----------------------|
 |
 | Gtrs I, II
 |   Q       E E   E      E E E     q       Q  E E E E
e|------------------------------|----------------------|
B|------------------------------|----------------------|
G|------------------------------|----------------------|
D|------------------------------|----------------------|
A|---7-------7-7---7------7-7-7-|---7-------7--7-7-7-7-|
E|---5-------0-5---0------0-5-0-|---5-------5--0-5-0-0-|


    Q        +Q     +Q.      E    E  E  Q   E  E  Q
e|--0------------------------0-|--0--0--0-------------|
B|-12pb14===(12)r==(12)-----12-|-12-12-12--12-12-12---|
G|-----------------------------|----------------------|
D|-----------------------------|----------------------|
A|-----------------------------|----------------------|
E|-----------------------------|----------------------|
 |
 |  Q         E  E   E  E E  E    q     Q   E  E  E E
e|-----------------------------|----------------------|
B|-----------------------------|----------------------|
G|-----------------------------|----------------------|
D|-----------------------------|----------------------|
A|--5---------2--5---2--2-5--2-|--5-----5---2--5--2-2-|
E|--3---------0--3---0--0-3--0-|--3-----3---0--3--0-0-|


                            |-3-| |-3-|
  E E E E E E E E    E  S S E E E E E E E E

e|-7-7-6-6-5-5---3-|--3----------------------|
B|-8---7---6---5---|-----5p3-5p3p0-----------|
G|-----------------|---------------4p2p0-----|
D|-----------------|---------------------2p0-|
A|-----------------|-------------------------|
E|-----------------|-------------------------|
 |
 |               ~~~~~~~~
 | E E E E E Q   E   +Q      Q     Q     Q
e|-----------------|-------------------------|
B|-----------------|-------------------------|
G|-----------------|-------------------------|
D|-----------------|-------------------------|
A|-7-7---7---7---9-|-(9)-----7-----5-----4---|
E|-5-5---5---5---7-|-(7)-----5-----3-----2---|


                              ~~~~
   Q    a     +E   E  E      +Q.        +E   E  +E   E  a      +E   +E   E  E
e|----------------12-----------------|-----------------------------------------||
B|-0-----------------15b17==(15)-----|-(15)-15r(15)-12-------------------------||
G|-0--/14b16-(14)--------------------|-----------------14b16==(14)r(14)-12-----||
D|-----------------------------------|-------------------------------------14--||
A|-----------------------------------|-----------------------------------------||
E|-----------------------------------|-----------------------------------------||
 |
 | Q           E   E  E       E  E E     Q       Q              E    E   E  E
e|-----------------------------------|-----------------------------------------||
B|-----------------------------------|-----------------------------------------||
G|-----------------------------------|-----------------------------------------||
D|-----------------------------------|-----------------------------------------||
A|-5-----------2---5--2-------2--5-2-|---5-------5--------------2----5---2--2--||
E|-3-----------0---3--0-------0--3-0-|---3-------3--------------0----3---0--0--||


[Verse 5]

         PM|
    +E   E  E  E  Q.    E   W               W                W
e|------------------------|---------------|----------------|---------------|
B|------------------------|---------------|----------------|---------------|
G|---------------12\------|---------------|----------------|---------------|
D|-(14)----14-12-12\------|---------------|----------------|---------------|
A|---------14-12----------|---------------|----------------|---------------|
E|------12-12-------------|---------------|----------------|---------------|
 |
 |   E   E  E  E  Q   Q     Q  Q  E E E E   Q  E E E E E E   Q  Q  E E E E
e|------------------------|---------------|----------------|---------------|
B|------------------------|---------------|----------------|---------------|
G|------------------------|---------------|----------------|---------------|
D|------------------------|---------------|----------------|---------------|
A|---2---5--2--2--2-------|-5--5--2-5-2-2-|-5--2-5-2-2-5-2-|-5--5--2-5-2-2-|
E|---0---3--0--0--0-------|-3--3--0-3-0-0-|-3--0-3-0-0-3-0-|-3--3--0-3-0-0-|


   Gtr II
   q  Q  E E E E   q  Q  E E Q    Q     +Q   +Q   Q    H    E E E E
e|---------------|--------------|--------------------|--------------|
B|---------------|--------------|--------------------|--------------|
G|---------------|--------------|--------------------|--------------|
D|---------------|--------------|--------------------|--------------|
A|-7--7--7-7-7-7-|-7--7--7-7-7--|-5------------------|--------5-6-7-|
E|-5--5--0-0-5-0-|-5--5--0-5-5--|-3b5===(3)r=(3)-----|--------3-4-5-|
 |
 | q  Q  E E E E   q  Q  E E Q    Q      Q    H        H    E E E E
e|---------------|--------------|--------------------|--------------|
B|---------------|--------------|--------------------|--------------|
G|---------------|--------------|--------------------|--------------|
D|---------------|--------------|--------------------|--------------|
A|-7--7--7-7-7-7-|-7--7--7-7-7--|-5------------------|--------5-6-7-|
E|-5--5--0-0-5-0-|-5--5--0-5-5--|-3------------------|--------3-4-5-|


                 ~~~~~~~~
   +E  E Q  Q  E E   +Q   Q  Q  Q    Q  E E E E E E   Q  E E +H
e|-----------------|---------------|----------------|------------------||
B|-----------------|---------------|----------------|------------------||
G|-----------------|---------------|----------------|----4S7-(7)-------||
D|-----------------|---------------|----------------|------------------||
A|-(7)-7-9-------9-|-(9)--7--5--4--|-5--2-5-2-2-5-2-|-5----------------||
E|-(5)-5-5-------7-|-(7)--5--3--2--|-3--0-3-0-0-3-0-|-3----------------||
 |
 |               ~~~~~~~~
 |  E  E Q  Q  E E   +Q   Q  Q  Q    Q  E E E E E E   Q  Q    E  E E E
e|-----------------|---------------|----------------|------------------||
B|-----------------|---------------|----------------|------------------||
G|-----------------|---------------|----------------|------------------||
D|-----------------|---------------|----------------|------------------||
A|--7--7-9-------9-|-(9)--7--5--4--|-5--2-5-2-2-5-2-|-5--5----2--5-2-2-||
E|--5--5-5-------7-|-(7)--5--3--2--|-3--0-3-0-0-3-0-|-3--3----0--3-0-0-||


[Chorus]

   Gtr III
                                         ~~~
   W                H      E  E  E  E    H.           +Q      Q  Q   E  E  E  E
e|----------------|-------------15----|-12-----------(12)p==|=0-----------------|
B|----------------|-------12-15----15-|---------------------|-------12----15----|
G|----------------|-------------------|---------------------|----------14----14-|
D|----------------|-------------------|---------------------|-------------------|
A|----------------|-------------------|---------------------|-------------------|
E|----------------|-------------------|---------------------|-------------------|
 |
 | Gtrs I, II
 | Q  E E E E E E   Q  Q   E  E  E  E    Q   E E E E   E  E   Q  Q   E  E  E  E
e|----------------|-------------------|---------------------|-------------------|
B|----------------|-------------------|---------------------|-------------------|
G|----------------|-------------------|---------------------|-------------------|
D|----------------|-------------------|---------------------|-------------------|
A|-5--2-5-2-2-5-2-|-5--5---2--5--2--2-|--5---2-5-2-2---5--2-|-5--5---2--5--2--2-|
E|-3--0-3-0-0-3-0-|-3--3---0--3--0--0-|--3---0-3-0-0---3--0-|-3--3---0--3--0--0-|


    ~~
    W                H      a  E  E  E  E
e|-----------------|----------------------|
B|-12--------------|----------------------|
G|-----------------|-------14s12----14----|
D|-----------------|-------------14----14-|
A|-----------------|----------------------|
E|-----------------|----------------------|
 |
 |  Q  E E E E E E   q  Q      E  E  E  E
e|-----------------|----------------------|
B|-----------------|----------------------|
G|-----------------|----------------------|
D|-----------------|----------------------|
A|--7--7-7-7-7-7-7-|-7--7------7--7--7--7-|
E|--5--0-5-0-0-5-0-|-5--5------0--5--0--0-|


                  ~~~~~~~~~~~~~~~~~~~~
    a      +Q    +H.              +E   E  E  E  E  E  E  E
e|-----------------------------|-----------------------------|
B|-----------------------------|-----------------------------|
G|-12b14==(12)r=(12)-----------|-(12)------------------------|
D|-----------------------------|------14p12------------------|
A|-----------------------------|------------14-12----12-14---|
E|-----------------------------|------------------15---------|
 |
 |          Q     E  E E E E E     q      Q     E  E  E  E
e|-----------------------------|-----------------------------|
B|-----------------------------|-----------------------------|
G|-----------------------------|-----------------------------|
D|-----------------------------|-----------------------------|
A|----------5-----2--5-2-2-5-2-|---5------5-----2--5--2--2---|
E|----------3-----0--3-0-0-3-0-|---3------3-----0--3--0--0---|


           ~~~~~                                                                   ~~~~
    a     +H..             E    E   a      +E   +E   E  a      +E   +E   E  a     +E
e|---------------------------|--------------------------------------------------------|
B|---------------------------|-------------------------15b17==(15)r(15)p12-15b17-(15)-|
G|---------------------------|-----14b16==(14)r(14)p12--------------------------------|
D|-12b14-(12)-------------14p|=12-----------------------------------------------------|
A|---------------------------|--------------------------------------------------------|
E|---------------------------|--------------------------------------------------------|
 |
 |       Gtr I
 |                         ~~~~~~~~
 |         E   E E E E Q   E   +Q                Q              Q        Q
e|---------------------------|--------------------------------------------------------|
B|---------------------------|--------------------------------------------------------|
G|---------------------------|--------------------------------------------------------|
D|---------------------------|--------------------------------------------------------|
A|---------7---7---7---7---9-|-(9)---------------7--------------5--------4------------|
E|---------5---5---5---5---7-|-(7)---------------5--------------3--------2------------|
 |
 |       Gtr II
 |                         ~~~~~~~~
 |         E   E E E E Q   E   +Q                Q              Q        Q
e|---------------------------|--------------------------------------------------------|
B|---------------------------|--------------------------------------------------------|
G|---------------------------|--------------------------------------------------------|
D|---------------------------|--------------------------------------------------------|
A|---------7---7---7---7---9-|-(9)---------------7--------------5--------4------------|
E|---------5---5---5---5---7-|-(7)---------------5--------------3--------2------------|


  ~~~~~~
    +H.          Q     W
e|-------------------|-------------------|
B|-(15)----------0---|-------------------|
G|-------------------|-9b12--------------|
D|-------------------|-------------------|
A|-------------------|-------------------|
E|-------------------|-------------------|
 |
 |   Q   E E E E E E   Q     Q  E Q.
e|-------------------|-------------------|
B|-------------------|-------------------|
G|-------------------|-------------------|
D|-------------------|-------------------|
A|---5---2-5-2-2-5-2-|-5-----5--2-5------|
E|---3---0-3-0-0-3-0-|-3-----3--0-3------|
 |
 |   Q   E E E E E E   Q     Q  E E  E E
e|-------------------|-------------------|
B|-------------------|-------------------|
G|-------------------|-------------------|
D|-------------------|-------------------|
A|---5---2-5-2-2-5-2-|-5-----5--2-5--2-2-|
E|---3---0-3-0-0-3-0-|-3-----3--0-3--0-0-|


    ~~~
   +W            +H.       +E  +E
e|------------|--------------------||
B|------------|--------------------||
G|-(9)--------|-([9])------(9)r(9)-||
D|------------|--------------------||
A|------------|--------------------||
E|------------|--------------------||
 |
 | +W            +W
e|------------|--------------------||
B|------------|--------------------||
G|------------|--------------------||
D|------------|--------------------||
A|-(5)--------|--(5)---------------||
E|-(3)--------|--(3)---------------||


[Outro]

  Previous tempo Q=198
  Gtr I
                                PM--------|       PM--------|
  H    E Q.     +W           Q  E E E E E E   Q   E E E E E E

e|-0-----------|------------|----------------|-----------------|
B|-0-----------|------------|-9--------------|-9---------------|
G|------1h2----|-(2)--------|-9--------------|-9---------------|
D|-2-----------|------------|-9--2-2-2-2-2-2-|-9---2-2-2-2-2-2-|
A|-2-----------|------------|-7--2-2-2-2-2-2-|-7---2-2-2-2-2-2-|
E|-0-----------|------------|----0-0-0-0-0-0-|-----0-0-0-0-0-0-|
|
| Gtr II
|                               PM--------|
| H    E Q.     +W           Q  E E E E E E   E E E E H
|-0-----------|------------|----------------|-----------------|
|-0-----------|------------|-9--------------|-9-9-9-9---------|
|------1h2----|-(2)--------|-9--------------|-9-9-9-9---------|
|-2-----------|------------|-9--2-2-2-2-2-2-|-9-9-9-9---------|
|-2-----------|------------|-7--2-2-2-2-2-2-|-7-7-7-7---------|
|-0-----------|------------|----0-0-0-0-0-0-|-----------------|


      PM--------|       PM--------|
  Q   E E E E E E   Q   E E E E E E

e|-----------------|-----------------|
B|-9---------------|-9---------------|
G|-9---------------|-9---------------|
D|-9---2-2-2-2-2-2-|-9---2-2-2-2-2-2-|
A|-7---2-2-2-2-2-2-|-7---2-2-2-2-2-2-|
E|-----0-0-0-0-0-0-|-----0-0-0-0-0-0-|
 |
 | E E E E H         E E E E H
e|-----------------|-----------------|
B|-9-9-9-9---------|-9-9-9-9---------|
G|-9-9-9-9---------|-9-9-9-9---------|
D|-9-9-9-9---------|-9-9-9-9---------|
A|-7-7-7-7---------|-7-7-7-7---------|
E|-----------------|-----------------|


      PM--------|       PM--------|       PM--------|
   Q  E E E E E E    Q  E E E E E E    Q  E E E E E E

e|-----------------|-----------------|-----------------|
B|--9--------------|--9--------------|--9--------------|
G|--9--------------|--9--------------|--9--------------|
D|--9--2-2-2-2-2-2-|--9--2-2-2-2-2-2-|--9--2-2-2-2-2-2-|
A|--7--2-2-2-2-2-2-|--7--2-2-2-2-2-2-|--7--2-2-2-2-2-2-|
E|-----0-0-0-0-0-0-|-----0-0-0-0-0-0-|-----0-0-0-0-0-0-|
 |
 |  H      H          H      H          H      H
e|-----------------|-----------------|-----------------|
B|-12--------------|-12--------------|-12--------------|
G|-12--------------|-12--------------|-12--------------|
D|-12--------------|-12--------------|-12--------------|
A|-11--------------|-11--------------|-11--------------|
E|-----------------|-----------------|-12--------------|


              2/4
   Gtrs I, II
   H    H      H
e|-----------|------|
B|------3----|-2----|
G|------0----|-2----|
D|------0----|-2----|
A|-----------|-0----|
E|-0----3----|------|


  4/4
   Gtr I
   E. S E E         Q                    E.       S    E     E          E. S   Q        Q
e|-0--0-0-0---------0--------------------0--------0-|--0-----0----------0--0---0--------0----|
B|-0--0-0-0---------0--------------------0--------0-|--0-----0----------0--0---0--------0----|
G|-1--1-1-1---------1--------------------1--------1-|--1-----1----------1--1---1--------1----|
D|-2--2-2-2---------2--------------------2--------2-|--2-----2----------2--2---2--------2----|
A|-2--2-2-2---------2--------------------2--------2-|--2-----2----------2--2---2--------2----|
E|-0--0-0-0---------0--------------------0--------0-|--0-----0----------0--0---0--------0----|
 |
 | Gtr II
 | H         a     +S   S  S  S  a      +E   +S   S    S  E.    a      +Q     +E   +E   E 
 E
e|--------------------------------------------------|----------17b19==(17)---(17)r(17)-------|
B|---------------------12-15p12-15b17==(15)r(15)p12-|----------------------------------15-17-|
G|----------14b16-(14)------------------------------|-14p12----------------------------------|
D|--------------------------------------------------|----------------------------------------|
A|--------------------------------------------------|----------------------------------------|
E|--------------------------------------------------|----------------------------------------|


    Q            Q                    Q           Q                  Q        Q    Q    Q
e|--0------------0--------------------0-----------0-------|----------0--------0----0---------*|
B|--0------------0--------------------0-----------0-------|----------0--------0----0---------*|
G|--1------------1--------------------1-----------1-------|----------1--------1----1---------*|
D|--2------------2--------------------2-----------2-------|----------2--------2----2---------*|
A|--2------------2--------------------2-----------2-------|----------2--------2----2---------*|
E|--0------------0--------------------0-----------0-------|----------0--------0----0---------*|
 |
 |                                                                            ~~~~~~~~~
 |                                    |---3----|  |--3--|
 | S  S  S  S  +S   S  S  S  a      +E   +E   E  E  E  E    a      +E   +E   Q   +Q    Q
|-15p12-15p12-(12)-12------------------------------------|----------------------------------*|
|---------------------15p12------------------------------|----------------------------------*|
|---------------------------14b16==(14)r(14)p12-14p12----|-12b14==(12)r(12)-----------------*|
|-----------------------------------------------------14-|------------------14--(14)\-------*|
|--------------------------------------------------------|----------------------------------*|
|--------------------------------------------------------|----------------------------------*|

Duration Legend
---------------
W - whole; H - half; Q - quarter; E - 8th; S - 16th; T - 32nd; X - 64th; a - acciaccatura
+ - note tied to previous; . - note dotted; .. - note double dotted
Uncapitalized letters represent notes that are staccato (1/2 duration)
Irregular groupings are notated above the duration line
Duration letters will always appear directly above the note/fret number it represents the
duration for.  Duration letters with no fret number below them represent rests.  Multi-
bar rests are notated in the form Wxn, where n is the number of bars to rest for.  Low
melody durations appear below the staff

Tablature Legend
----------------
 h   - hammer-on
 p   - pull-off
 b   - bend
 pb  - pre-bend
 r   - bend release (if no number after the r, then release immediately)
 /\  - slide into or out of (from/to "nowhere")
 s   - legato slide
 S   - shift slide
 - natural harmonic
[n]  - artificial harmonic
n(n) - tapped harmonic
 ~   - vibrato
 tr  - trill
 T   - tap
 TP  - trem. picking
 PM  - palm muting
\n/  - tremolo bar dip; n = amount to dip
 \n  - tremolo bar down
 n/  - tremolo bar up
/n\  - tremolo bar inverted dip
 =   - hold bend; also acts as connecting device for hammers/pulls
 <> - volume swell (louder/softer)
 x   - on rhythm slash represents muted slash
 o   - on rhythm slash represents single note slash

Misc Legend
-----------
 |  - bar
||  - double bar
||o - repeat start
o|| - repeat end
*|  - double bar (ending)
 |  - bar (freetime)
 $  - Segno
 &  - Coda
Tempo markers -  = BPM(8/16=s8/s16), where s8 = swing 8ths, s16 = swing 16ths
Suggest correction
comments
print report bad tab
9 comments total. Showing first comments.
+1 reply
guitarplaya322 90 Jun 19, 2008 12:44 PM

nice tab... its pretty much perfect, although complicated to read

0 reply
Shazwazza 10 Jun 25, 2008 07:58 AM

Very good tab

+4 reply
david55599 10 Jul 01, 2008 05:14 PM

intro is hard to read

guest
You may want to rate the tab now too:
select rating
Wanna post a correction for this tab? Suggest correction