Oops, an error
Loading. Please wait.

Walk This Way Tab

version 1
version 1
131,696 views 60 this week
10 commentsread comments
1 2 3 4 5
accurate
x 46
add to favorites
launch autoscroll
font size
0
reset
how to read this tab
guitar tuner
Autoscroll
slow
fast
+/-
esc
set tempo
stop
Help us to improve Ultimate-Guitar.com Take our survey!
×
Author
1-----------------------------------------------------------
2-----------------------------------------------------------
3-----------------------------------------------------------
4------2---------2--------------2----------------2----------
5-0-1-2----0-1-2----------0-1-2------0-1-2------------------
6-------------------0----------------------3/0--------------

1-----------------------------------------------------------
2-----------------------------------------------------------
3----------------------------------------2------------------
4-------2---------2-----------2----------2------------------
5-0-1-2-----0-1-2-------0-1-2----0-1-2---0------------------
6--------------------0--------------------------------------
Suggest correction
comments
print report bad tab
10 comments total. Showing first comments.
0 reply
ghislain 110 wrote on September 14 2003, 12:00 am

you forgot the muted strings in between.
this sounds more like the run dmc version.

0 reply
linde lover 10 wrote on February 17 2004, 12:00 am

it sounds better with hammer ons

e:--------------------------------------------------------
B:--------------------------------------------------------
G:--------------------------------------------------------
D:--------2-----------2------------2-----------2-----2----
A:---0h1h2------0h1h2--------0h1h2-------0h1h2------------
E:-----------------------0-----------------------3b-------

0 reply
frusciante_man1 20 wrote on June 29 2006, 02:17 pm

i dont think its an Em at the end

guest
You may want to rate the tab now too:
select rating
Please do not post tabs as comments. Select "correction" instead!