Oops, an error
Loading. Please wait.

Walk This Way Bass Tab

version 3
version 3

Whole song

Interactive

1,774 views 9 this week
no commentswrite comment
1 2 3 4 5
please rate
add to favorites
launch autoscroll
font size
0
reset
guitar tuner
Autoscroll
slow
fast
+/-
esc
set tempo
stop
Help us to improve Ultimate-Guitar.com Take our survey!
×
Author
                            WALK THIS WAY (Bassline)
                            As recorded by Aerosmith
                     (From the 1975 Album TOYS IN THE ATTIC)

NOTE: THIS IS A SIMPLIFIED VERSION

Words and Music by Steven Tyler & Joe Perry
Arranged by Hallvard Jensen
Transcribed by Hallvard Jensen

Bass (E A D G)

    Q=111
    $
   4/4
    Gtr I
    E.  S S E.  S S Q.   E.  S S E.  S S Q.   E.  S S E.  S S Q.   E.  S
||---------------------|--------------------|--------------------|-------|
||o-----2-------2------|-----2-------2------|-----2-------2------|-----2-|
||o-0-------0----------|-0-------0----------|-0-------0----------|-0-----|
||------------------0--|-----------------0--|-----------------0--|-------|


  S E.  S S Q.    E S E S E E E E E   E S E S E E E E E   E S E S E E E E
|--------------||-------------------|-------------------|-----------------|
|-------2---5--||-------------------|-------------------|-----------------|
|---0----------||-3---3---1-3-----1-|-3---3---1-3-----1-|-3---3---1-3-----|
|--------------||-------------1-3---|-------------1-3---|-------------1-3-|


  E   E S E S E E E E E   E S E S E E E E E   E S E S E E E E E   E S E
|---|-------------------|-------------------|-------------------|-------|
|---|-------------------|-------------------|-------------------|-------|
|-1-|-3---3---1-3-----1-|-3---3---1-3-----1-|-3---3---1-3-----1-|-3---3-|
|---|-------------1-3---|-------------1-3---|-------------1-3---|-------|


               1.,3.               2.,4.
  S E E E E E   E S E S E E E Q    E S E S E E E E E    E.  E.  E.  E.  E E
|-------------|------------------||-------------------||---------------------|
|-------------|-----------------o||-------------------||-------------------1-|
|---1-3-----1-|-3---3---1-0---5-o||-3---3---1-3-----1-||-3---3---3---3---3---|
|-------1-3---|------------------||-------------1-3---||---------------------|


  E.  E.  E.  E.  E E   E.  E.  E.  E.  E E   E.  E.  E.  E.  E E   E.
|-------------------3-|---------------------|-------------------3-|-----|
|-3---3---3---3---3---|-------------------1-|-3---3---3---3---3---|-----|
|---------------------|-3---3---3---3---3---|---------------------|-3---|
|---------------------|---------------------|---------------------|-----|


  E.  E.  E.  E E   E.  E.  E.  E.  E E   E.  E.  E.  E.  E E   E.  E.
|-----------------|-------------------3-|---------------------|---------|
|---------------1-|-3---3---3---3---3---|-------------------1-|-3---3---|
|-3---3---3---3---|---------------------|-3---3---3---3---3---|---------|
|-----------------|---------------------|---------------------|---------|


  E.  E.  E E    E S E S E E E E E   E S E S E E E E E   E S E S E E E E
|-----------3-||-------------------|-------------------|-----------------|
|-3---3---3---||-------------------|-------------------|-----------------|
|-------------||-3---3---1-3-----1-|-3---3---1-3-----1-|-3---3---1-3-----|
|-------------||-------------1-3---|-------------1-3---|-------------1-3-|


             D.S.
  E   E S E S E E E Q    E.  S S E.  S S Q.   E.  S S E.  S S Q.   E.  S S E.
|---|-----------------||---------------------|--------------------|------------|
|---|-----------------||o-----2-------2------|-----2-------2------|-----2------|
|-1-|-3---3---1-0---5-||o-0-------0----------|-0-------0----------|-0-------0--|
|---|-----------------||------------------0--|-----------------0--|------------|


  S S Q.   E.  S S E.  S S Q. 12x
|--------|---------------------||
|-2------|-----2-------2------o||
|--------|-0-------0----------o||
|-----0--|-----------------0---||


Duration Legend
---------------
W - whole; H - half; Q - quarter; E - 8th; S - 16th; T - 32nd; X - 64th; a - acciaccatura
+ - note tied to previous; . - note dotted; .. - note double dotted
Uncapitalized letters represent notes that are staccato (1/2 duration)
Irregular groupings are notated above the duration line
Duration letters will always appear directly above the note/fret number it represents the
duration for.  Duration letters with no fret number below them represent rests.  Multi-
bar rests are notated in the form Wxn, where n is the number of bars to rest for.  Low
melody durations appear below the staff

Tablature Legend
----------------
 h   - hammer-on
 p   - pull-off
 b   - bend
 pb  - pre-bend
 r   - bend release (if no number after the r, then release immediately)
 /\  - slide into or out of (from/to "nowhere")
 s   - legato slide
 S   - shift slide
  - natural harmonic
[n]  - artificial harmonic
n(n) - tapped harmonic
 ~   - vibrato
 tr  - trill
 T   - tap
 TP  - trem. picking
 PM  - palm muting
\n/  - tremolo bar dip; n = amount to dip
 \n  - tremolo bar down
 n/  - tremolo bar up
/n\  - tremolo bar inverted dip
 =   - hold bend; also acts as connecting device for hammers/pulls
 <>  - volume swell (louder/softer)
 x   - on rhythm slash represents muted slash
 o   - on rhythm slash represents single note slash

Misc Legend
-----------
 |  - bar
||  - double bar
||o - repeat start
o|| - repeat end
*|  - double bar (ending)
 :  - bar (freetime)
 $  - Segno
 &  - Coda
Tempo markers -  = BPM(8/16=s8/s16), where s8 = swing 8ths, s16 = swing 16ths


***************************************************************************************
* Generated using Power Tab Editor by Brad Larsen - http://powertab.guitarnetwork.org *
***************************************************************************************
Suggest correction
Give kudos to tab author, rate the tab!
1 2 3 4 5
comments
print report bad tab
guest
You may want to rate the tab now too:
select rating
Wanna post a correction for this tab? Suggest correction