Oops, an error
Loading. Please wait.

What Kinda Love Are You On Tab

version 1
version 1

Whole song

Interactive

1,154 views 1 this week
no commentswrite comment
1 2 3 4 5
accurate
x 3
add to favorites
launch autoscroll
font size
0
reset
how to read this tab
guitar tuner
Tab Pro tools
  • play this tab
  • loop segment
  • change instrument
  • show fretboard
  • metronome
×
Best way to learn
"What Kinda Love Are You On"
Autoscroll
slow
fast
+/-
esc
set tempo
stop
Song: What Kinda Love Are You On
Band: Aerosmith
Transcribed by: ulisses




     E   H.           E     E   H.           E     E   H.           E   
E||----------------------|----------------------|----------------------|
B||----------------------|----------------------|----------------------|
G||----------------------|----------------------|----------------------|
D||----------------------|----------------------|----------------------|
A||--2S--4---------------|--4S--2---------------|--2S--4---------------|
E||--2S--4---------------|--4S--2---------------|--2S--4---------------|


                                        |--3--|  |--3--|   
  E   H.           E     E    E   E  E  E  E  E  E  E  E   
----------------------|-----------------------------------|
----------------------|-----------------------------------|
----------------------|-----------------------------------|
----------------------|--------------------4-----4--------|
--4S--2---------------|-----------------------------------|
--4S--2---------------|--2S--15S--2-----2-----2-----2-----|


  |--3--|             |--3--|     |--3--|  |--3--|              
  E  E  E  E.  E.  E  E  E  E     E  E  E  E  E  E  E.  E.  E   
-------------------------------|-------------------------------|
-----------3---5---------------|--------------------5---3------|
-------------------------------|-------------------------------|
--4----------------------4-----|--4--------4-------------------|
-------------------------------|-------------------------------|
-----2----------------2-----2--|-----2--------2----------------|


  |--3--|  |--3--|  |--3--|                 |--3--|  |--3--|  |--3--|   
  E  E  E  E  E  E  E  E  E  E.  S    E  E  E  E  E  E  E  E  E  E  E   
-----------------------------------|-----------------------------------|
-----------------------------3---5-|--L--------------------------------|
-----------------------------------|-----------------------------------|
-----4-----4--------4--------------|-----------4-----4--------4--------|
-----------------------------------|-----------------------------------|
--2-----2-----2--------2-----------|--------2-----2-----2--------2-----|


             |--3--|  |--3--|                         
  E.  E.  E  E  E  E  E  E  E     E  H.           E   
-------------------------------|---------------------|
--5---3------------------------|---------------------|
-------------------------------|-----4---------------|
----------------4-----4--------|--4--4---------------|
-------------------------------|---------------------|
-------------2-----2-----2-----|---------------------|


  |--3--|  |--3--|                         |--3--|  |--3--|   
  E  E  E  E  E  E  E  Q.        Q.     E  E  E  E  E  E  E   
------------------------------|------------------------------|
------------------------------|------------------------------|
-----------------------2------|--L---------------------------|
-----4-----4--------2--2------|--L------------4-----4--------|
------------------------------|------------------------------|
--2-----2-----2---------------|------------2-----2-----2-----|


                        |--3--|  |--3--|                                   
  E  H.           E     E  E  E  E  E  E  E  Q.        Q.     H        E   
---------------------|------------------------------|---------------------|
---------------------|------------------------------|---------------------|
---------------------|------------------------------|---------------------|
-----5---------------|-----4-----4-----------4------|--L------------------|
--5--5---------------|--------------------4--4------|--L------------------|
---------------------|--2-----2-----2---------------|---------------------|


  W                  
-------------------||
-------------------||
-------------------||
-------------------||
-------------------||
-------------------||




Duration Legend
---------------
W - whole
H - half
Q - quarter
E - 8th
S - 16th
T - 32nd
X - 64th
. - note dotted
|-n-|  - n-tuplets


Tablature Legend
----------------
L - tied note
x - dead note
g - grace note
(n) - ghost note
> - accentuded note
NH - natural harmonic
AH - artificial harmonic
TH - tapped harmonic
SH - semi harmonic
PH - pitch harmonic
h - hammer on
p - pull off
b - bend
br - bendRelease
pb - preBend
pbr - preBendRelease
brb - bendReleaseBend
\n/ - tremolo bar dip
\n - tremolo bar dive
-/n - tremolo bar Release up
/n\ - tremolo bar inverted dip
/n - tremolo bar return
-\n - tremolo bar Release down
S - shift slide
s - legato slide
/ -  slide into from below or out of upwards
\ -  slide into from above or out of downwards
~ - vibrato
W - wide vibrato
tr - trill
TP - tremolo picking
T - tapping
S - slap
P - pop
< - fade in
^ - brush up
v - brush down
comments
We did not receive enough feedback on this tab! Please rate:
print report bad tab
1 2 3 4 5
I want to post or [tab]
guest
You may want to rate the tab now too:
select rating
Please do not post tabs as comments. Select "correction" instead!