Oops, an error
Loading. Please wait.

Write Me A Letter Bass

647 views 3 this week
3 commentsread comments
1 2 3 4 5
2 more votes to show rating
add to favorites
launch autoscroll
font size
0
reset
guitar tuner
×
Best way to learn
"Write Me A Letter"
Autoscroll
slow
fast
+/-
esc
set tempo
stop
Aerosmith
Write Me
bass tab


   0.06     intro         t:75         4:8 -3-
G|------------|------------|------------|------------|
D|------------|------------|5--3-------3---3---2-2---|
A|------------|------------|------5-3---|------------|
E|------------|------------|---------3--|---3-----3--|

G|------------|------------|------------|------------|
D|5--3-------3---3---2-2---|------------|------------|
A|------5-3---|------------|3--3-=3-33-=|3--3-=3-33-=|
E|---------3--|---3-----3--|------------|------------|

G|------------|------------|------------|------------|
D|------------|------------|---5--5-5=-5---.5-.5----.|
A|5--5-=5-5=--|--3-----4---|------------|------------|
E|-----------1----1-2---2-3-------------|------------|

   0.27     chorus 1a
G|------------|------------|------------|------------|
D|5--5-=------|5--5-=------|------------|------------|
A|------------|------------|------------|------------|
E|------3-3-=-|------3-33-//8--8-=8-88-=|8--8-.8-8-=-|

G|------------|------------|------------|------------|
D|------------|------------|------------|------------|
A|-----------8|8-=--99-9-=X|X-.X-.X-X=-X---.8-.8-8--.|
E|X--X-=X--=--|------------|------------|---------8--|

   0.41     chorus 1b
G|------------|------------|------------|--------------|
D|------------|------------|------------|--------------|
A|X--X-=X-XX-=|X--X-=X-XX--|------------|--------------|
E|------------|------------|8--=--8-88-.|8--8-=8-88-//-|

G|------------|--..----..--|--..----..--|--..----..--|
D|------------|------------|------------|------------|
A|-----------8---=--9--=--X---=-----=--8|8-87-6------|
E|X--X-=X--=--|------------|-----6------|------------|

                           |------------|--------------|
                           |------------|--------------|
                           |5--5--5--5--|5--5--5555-\\-|
                           |------------|--------------|
   0.59     verse 1a
G|------------|------------|------------|------------|
D|------------|------------|------------|------------|
A|------------|------------|3--=--3-33-=|3--3-=3-33-=|
E|3--3-=3-3-=-|3--=--3-33-=|------------|------------|

G|------------|------------|------------|------------|
D|-----------3|-----4-----5|5--5-=5-5--3-------------|
A|5--=--5-5=--|------------|---------5--|--53-01-=---|
E|------------|1--=--2--=--|------------|---------1--|

   1.13     verse 1b
G|------------|------------|------------|--------------|
D|---5-=5-55--|------------|------------|--------------|
A|------------|------------|------------|--------------|
E|3----------.|3--3-=3-33-//8--8-=8-88-.|8--8-=8-88----|/

G|--------``--|---:----..--|--..----..--|------------|
D|------------|------------|------------|--32-1--11--|
A|------------|------------|-----1------|------------|
E|/X--X-=X-=--1---=--2--=--3------------1-------------|

   1.28     solo intro
G|------------|------------|------------|------------|
D|------------|------------|------------|------------|
A|5-.5-.5-.5-.|3-.3-.3-.3-.|1-.1-.1-.1-.|------------|
E|------------|------------|------------|4-.4-.4-.4-.|

                           |------------|------------|
                           |------------|532---------|
                           |------------|---532------|
                           |3-3-\\------|------3-1---|
   1.38     solo
G|------------|------------|------------|------------|
D|---5-=5--5--|5-=5-=5-55-=|------------|------------|
A|------------|------------|3-33-=3-33-=|3--3-=3-33-3|
E|3-=-----3--3|------------|------------|------------|

G|--------``--|---`-----`--|------------|------------|
D|------------|------------|5-55-.3-3=-5-------3-0--0|
A|5--5-=5-=---|------------|------------|--0------1--|
E|-----------1|1----22----3|------------|---3-=------|

   1.52     refrain 1a
G|------------|------------|------------|--------------|
D|5-----5-55--|5-----5-5---|------------|--------------|
A|------------|------------|3--3-=3-33-=|3--3-=3-33-//-|
E|---3-=-----3|---3-=---3-3|------------|--------------|

G|--------``--|---*--------|------------|------------|
D|-----------3|3----44----5|5-05-=5-5=-5---05-53--=-0|
A|5--5-=5-=---|------------|------------|------------|
E|------------|------------|------------|------------|


   2.06     refrain 1b
G|------------|------------|------------|--------------|
D|5--5-=5-55-0|5--5-=5-55--|------------|--------------|
A|------------|------------|------------|--------------|
E|------------|-----------3/8--8-=8-88-.|8--8-=8-88-//-|

G|--------``--|--``----``--|--``----``--|
D|------------|------------|------------|
A|------------|------------|----------^-|
E|X--X-=X-=--1---=--2--=--3---=--4--03-0|

   2.19     bridge intro
G|------------|------------|------------|------------|
D|------------|------------|-^-----^----|------------|
A|----------^-|3-----------|3-05-3--05-3-----------^-|
E|5-5-\\--03-0|--5-\\--03-0|------------|--03-5--03-0|

G|------------|------------|------------|------------|
D|------------|------------|-^-----^----|-^------77\-|
A|----------^-|3---------^-|3-05-3--05-3---0--0-----0|
E|5-5-=---03-0|--5-=---03-0|------------|---3--------|

   2.32     bridge
G|------------|------------|------------|------------|
D|------------|------------|-^-----^----|------------|
A|------------|----------^-|3-05-33-05-3|3---------^-|
E|5-55-55-53-3|5-55-55-53-0|------------|--03-55-03-0|

G|------------|------------|------------|------------|
D|------------|------------|-^-----^----|----------^-|
A|------------|----------^-|3-05-33-05-3|3-------03-0|
E|5-55-55-53-3|5-55-55-53-0|------------|--03-55-----|

G|------------|------------|------------|------------|
D|------------|------------|-^-----^----|------------|
A|----------^-|----------^-|3-05-33-05-3|3---------^-|
E|5--=-55-03-0|5-55-55-53-0|------------|--03-5--03-0|

G|------------|------------|--:.----:.--|
D|------------|-^----------|------------|
A|----------^-|3-0-=-------|------------|
E|5--=-55-03-0|-----55-\\-1------2------|

   2.58     chorus 2
G|------------|------------|------------|--------------|
D|------------|------------^------------|--------------|
A|------------^-----------1|3--3-=3-33-=|3--3-=3-33-//-|
E|3--3-=3-33-1|3--3-=3-33--|------------|--------------|

G|------------|------------|-^-----^----|-^--^--^----|
D|-----------3|-----4-----0|5-0-^-3-0-^-|5-03-03-0---|
A|5--5-=5-5=--|------------|---3-0---1-0|---------1-=|
E|------------|1--=--2-2=--|------------|------------|

   3.12     verse 2a
G|------------|------------|------------|------------|
D|5-----5--5-=|5--5-=5-5---|------------|------------|
A|------------|------------|------X87---|-----------0|
E|---3-=--3---|---------3-//8-88-=---8=8|8--8-=8-8-=-|

G|------------|------------|------------|------------|
D|-----------3|-----------0|5-----5-----|------------|
A|5--5-=5-5=--|------------|--03-0--3-=-|------------|
E|------------|1--=-22-2-=-|-----------6---05-=3-33-.|

   3.26     verse 2b
G|------------|------------|------------|------------|
D|---5-=5--5--|---5-=5-----|------------|------------|
A|------------|---------^^^|3--3-=3-33-.|3--3-=3-33-.|
E|3-------3--.|3-------0345|------------|------------|

G|------------|------------^-^----------|---^--^-----|
D|-----------3|-----------0|5-05-=5-5-=5---03-03-=---|
A|5--5-=5-5=--|------------|------------|------------|
E|------------|1--=-12-=---|------------|---------1/3|

   3.40     refrain 2a
G|------------|------------|------------|--------------|
D|5-----5-5-=-|5-----5-5---|------------|--------------|
A|------------|------------|3--3-=3-33-=|3--3-=3-33-//-|
E|---3-=-----3|---3-=---3-3|------------|--------------|

G|------------|------------|------------|------------|
D|-----------3------4-----5---.5-.5-.5--|5555555555\-|
A|5--5-=5-5=--|---/-----/--|------------|------------|
E|------------|--12----23--|------------|------------|

   3.53     refrain 2b
G|------------|------------|------------|--------------|
D|5-----5-5---|5-----5-5---|------------^--------------|
A|------------|------------|3--3-=3-33-0|3--3-=3-33-//-|
E|---3-=---3=3|---3-=---3-3|------------|--------------|

G|------------|------------|-------------|
D|------------|------------|-------------|
A|5--5-=5-0---|--9-8-7-8-9-|10-----------|
E|---------3-//------------|-------------|

standard tuning (EADG)

| /  slide up
| \  slide down

| .   incidental note (usually open string)
| ^   pre-struck note (hammer-on, pull-off)
| =   rest

| X   10
| E   11
| T   12
| H   13
| F   14

other punctuation
= percussion cues

display in fixed-width font
horizontal time standard notation
one space ("-") = 1/3 of an eighth note

this whole tune is interpreted
as being in 4:8 shuffle time


tabbed by
spaceyhippie
dudeman.net/jam
Suggest correction
Give kudos to tab author, rate the tab!
1 2 3 4 5
comments
print report bad tab
3 comments total.
-1 reply
waco2550 30 Aug 25, 2013 07:02 PM

It's hard to read the tab. Or maybe it's just me.

It sounds okay, I'll give it a 3.

guest
You may want to rate the tab now too:
select rating
Wanna post a correction for this tab? Suggest correction