Oops, an error
Loading. Please wait.

Catacomb Kids Bass Tab

1,303 views 1 this week
4 commentsread comments
1 2 3 4 5
2 more votes to show rating
add to favorites
launch autoscroll
font size
0
reset
guitar tuner
Autoscroll
slow
fast
+/-
esc
set tempo
stop
Help us to improve Ultimate-Guitar.com Take our survey!
×
Author
 intro x4                                           than interlude into main riff
                                                                       (distortion)
---------------------||-----------------8h10--8--6--------------|
--8------------11----||-----------11----------------------------|
---------------------||----11h13-----13-------------------------|
---------------------||-----------------------------------------|


Main Riff                                                         every once in a while throw
                                                                                   this 
the end
--------------------------------------------||--------------8h10p8-------||
--------------------------------------------||---------------------------||
-----------0h8--7--6--4---------------------||---------------------------||
--6-4-6--------------------6-4-6------------||---------------------------||


at 1:15 and again at 2:53

--------------------------------------------------------------------|
--8--8-11--8---15---------------------------------------------------|
------------------------------------------11--12-13-----------------|
------------------------11----12-13---------------------------------|




that's basically the main structure of the song, there are many fills during the main 
but they're mostly just improvisation, so be creative
Suggest correction
Give kudos to tab author, rate the tab!
1 2 3 4 5
comments
print report bad tab
4 comments total. Showing first comments.
0 reply
gwui 93 Sep 29, 2009 12:20 AM

yes, thanks.

0 reply
vomitingself 105 Apr 24, 2014 09:03 AM

Also (on 0:38 for example):
G|-------------------|
D|-------------------|
A|------4-6-7-6------|
E|-6--6---------4-66-|

0 reply
vomitingself 105 Apr 24, 2014 09:18 AM, edited at 09:23 am

And this:
--------------------------------------13-15-(extremely difficult to make out further)
--8--11-8--11/15-13--14-15----------------------------------------------------------------

guest
You may want to rate the tab now too:
select rating
Wanna post a correction for this tab? Suggest correction