Oops, an error
Loading. Please wait.

Labor bass

1,702 views 3 this week
1 commentread comment
1 2 3 4 5
x 4
add to favorites
×
Save as Personal and add changes to this tab that will be seen only by you. Learn more ›
×
You can save this tab as Personal to edit and correct it or add notes. All changes will be seen only by you. Learn more »
launch autoscroll
font size
0
reset
guitar tuner
edit
Autoscroll
slow
fast
+/-
esc
set tempo
stop
Difficulty
----------------------------------------------------------------------------
			     Labor - Aesop Rock
----------------------------------------------------------------------------

Tabbed By : RaDd6

Tuning:EADG

G|-------------------------------------16-13--------16-13---------16-13-----|
D|-6-(rest)6-(rest)6-(rest)-4(rest)7-6-------13--66-------13--7-6-------13--|
A|--------------------------------------------------------------------------|
E|--------------------------------------------------------------------------|

G|--16-13---------16-13-------16-13---------16-13---------------16-13-------|
D|4-------13--4-6-------13--6-------13--7-6-------13--4(rest)66-------13--6-|
A|--------------------------------------------------------------------------|
E|--------------------------------------------------------------------------|

G|16-13---------16-13-------16-13---------16-13-------16-13---------16-13----|
D|------13--7-6-------13--4-------13--4-6-------13--6-------13--7-6-------13-|
A|---------------------------------------------------------------------------|
E|---------------------------------------------------------------------------|

G|----16-13---------16-13-------16-13---------16-13-------16-13----------16-|
D|--4-------13--4-6-------13--6-------13--7-6-------13--4-------13---4-6----|
A|--------------------------------------------------------------------------|
E|--------------------------------------------------------------------------|

G|13-------16-13----------16-13-------16-13---------------------------------|
D|---13--6------(rest)7-6-------13--4-------13--4-6(rest)6-(rest)7-6-(rest)-|
A|--------------------------------------------------------------------------|
E|--------------------------------------------------------------------------|

G|-----------16-13-------16-13---------16-13-------16-13---------16-13-------|
D|44-4-4-7-6-------13--6-------13--7-6-------13--4-------13--4-6-------13--6-|
A|---------------------------------------------------------------------------|
E|---------------------------------------------------------------------------|

G|-16-13---------16-13-------16-13---------16-13-------16-13---------16-13--|
D|-------13--7-6-------13--4-------13--4-6-------13--6-------13--7-6--------|
A|--------------------------------------------------------------------------|
E|--------------------------------------------------------------------------|

G|------16-13---------16-13-------16-13---------16-13-------16-13---------16-|
D|13--4-------13--4-6-------13--6-------13--7-6-------13--4-------13--4-6----|
A|---------------------------------------------------------------------------|
E|---------------------------------------------------------------------------|

G|-13-------16-13---------16-13-------16-13---------------------------------|
D|----13--6-------13--7-6-------13--4-------13--4-6-------------------------|
A|--------------------------------------------------------------------------|
E|--------------------------------------------------------------------------|

  This song is on the Tony Hawk Pro Skater 4 video game. THis is one of those 
songs. This one was about labor in America and the concept of "wage slaves." Props to ya Aesop.

            
            
Suggest correction
Creating personal tab
Creating personal tab
You can edit any tab online and save it as your Personal.

You can edit, replace or remove any tab part or add personal notes – all changes will be seen only by you.

Personal tabs can be accessed anytime from any device, even offline.
Learn more »
comments
print report bad tab
1 comment total.
0 reply
robotfrom94 314 Apr 28, 2016 04:33 AM

Great tab, notes are all accurate. Only thing I'd add is to signify the vibrato on the end of each bar

guest
Wanna post a correction for this tab? Suggest correction