Oops, an error
Loading. Please wait.

17 Crimes Bass Tab

version 1
version 1

Whole song

Interactive

by AFI
2,509 views 1 this week
no commentswrite comment
1 2 3 4 5
accurate
x 3
add to favorites
launch autoscroll
font size
0
reset
guitar tuner
Autoscroll
slow
fast
+/-
esc
set tempo
stop
Help us to improve Ultimate-Guitar.com Take our survey!
×
Author
Difficulty
intermediate
AFI - 17 Crimes

Tabbed by: XxThreeCheersxX
E-mail: phantomhiveghost@gmail.com

Tuning: Standard

EDITED 10/17/13 - Fixed the second verse and made some formatting changes so it is 
easier to read.  Enjoy!

Intro:
G|------------------------------------------------------------------|
D|------------------------------------------------------------------|
A|-------------------------------------------------------------2-3--|
E|-3-5-5-5-5-5-5-3--5-5-5-5-5-5-5-3-5-5-5-5-5-5-3--5-5-5-5-5-5------|

G|------------------------|
D|-3(x24)-5-5-5/10-10-9-9-|
A|------------------------|
E|------------------------|

Verse:
G|-------------------------------------------10-10-9-9-----------|
D|-7(x24)-7-7-7-7-9-9-10-10------------10-10-----------10-10-9-9-|
A|--------------------------8(x20)-8-8---------------------------|
E|---------------------------------------------------------------|

G|--------------------------------10(x8)--|
D|-7(x24)-7-7-7-7-9-9-10-10---------------|
A|--------------------------8(x24)--------|
E|----------------------------------------|

Chorus:
G|--------------------------------------------------------|
D|-------------------------3(x8)-5(x8)-7(x8)--------------|
A|-3(x8)-------------3(x8)--------------------------------|
E|-------3(x8)-1(x8)-------------------------5(x4)-7(x4)--|

G|--------------------------------------|
D|-------------------------3(x4)--------|
A|-3(x8)-------------3(x4)-------3(x4)--|
E|-------3(x8)-1(x4)--------------------|

G|-----2--------4-----|
D|-3------3-5------5--|
A|--------------------|
E|--------------------|

G|---------------------------|
D|--7(x16)--------10-10-9-9--|
A|---------------------------|
E|---------5(x4)-------------|

Verse 2 (slight variation)
G|-------------------------------------------10-10-9-9-----------|
D|-7(x24)-7-7-7-7-9-9-10-10------------10-10-----------10-10-9-9-|
A|--------------------------8(x20)-8-8---------------------------|
E|---------------------------------------------------------------|

G|----------------------------------------|
D|-7(x24)-7-7-7-7-9-9-10-10---------------|
A|--------------------------8(x28)-10(x4)-|
E|----------------------------------------|

Chorus variation
G|--------------------------------------------------------|
D|-------------------------3(x8)-5(x8)-7(x8)--------------|
A|-3(x8)-------------3(x8)--------------------------------|
E|-------3(x8)-1(x8)-------------------------5(x4)-7(x4)--|

G|--------------------------------------|
D|-------------------------3(x4)--------|
A|-3(x8)-------------3(x4)-------3(x4)--|
E|-------3(x8)-1(x4)--------------------|

G|---------2-2-2-5-5-------4-4-4-7-7-------5-5-5-9-9-----------------|
D|--3-3-3------------5-5-5-----------7-7-7-----------7-7-------------|
A|-------------------------------------------------------7-7-5-5-3-3-|
E|-------------------------------------------------------------------|

Bridge A (x2)
G|--------------------------------------------------------------------|
D|--------------------------------------------------------------------|
A|--------------------------------------------------------------------|
E|-3-5-5-5-5-5-5-5-3--5-5-5-5-5-7-7-8-8-8-8-8-8-8-8--8-8-8-8-8-10-10--|

G|--------------------|
D|--------------------|
A|--------------------|
E|-3(x16)-10(x14)-12\-|

Bridge B
G|--------------------------------------------------------------------------|
D|--------------------------------------------------------------------------|
A|---------------------------------------------------------10(x16)/17(x16)--|
E|-5~----7-8~---10\3~-----3/10~-----12\5(x16)-8(x14)-10-10------------------|

Chorus (final)
G|-----------------------------|
D|--------------3(x4)----------|
A|--------3(x4)-------3(x4)----|
E|-1(x12)-------------------1--|

G|--------------------------------------------------------|
D|-------------------------3(x8)-5(x8)-7(x8)--------------|
A|-3(x8)-------------3(x8)--------------------------------|
E|-------3(x8)-1(x8)-------------------------5(x4)-7(x4)--|

G|--------------------------------------|
D|-------------------------3(x4)--------|
A|-3(x8)-------------3(x4)-------3(x4)--|
E|-------3(x8)-1(x4)--------------------|

G|--------2-2-2-5-5-------4-4-4-7-7--------5-5-5-9-9-----------------|
D|--3-3-3-----------5-5-5-----------7-7-7----------------------------|
A|-------------------------------------------------------------------|
E|---------------------------------------------------5-5-5-5-7-7-7-7-|

G|--------------------------------------------------------|
D|-------------------------3(x8)-5(x8)-7(x8)--------------|
A|-3(x8)-------------3(x8)--------------------------------|
E|-------3(x8)-1(x8)-------------------------5(x4)-7(x4)--|

G|---------------------------------------|
D|-------------------------3(x4)---------|
A|-3(x8)-------------3(x4)-------3(x4)---|
E|-------3(x8)-1(x4)---------------------|

G|-----2-5-----2-5-----4-7-----4-7-----5-9-----5------------------12-14------|
D|-3-3-----3-3-----5-5-----5-5-----7-7-----7-7-----7-7-9-10-12-14------------|
A|---------------------------------------------------------------------------|
E|---------------------------------------------------------------------------|
Suggest correction new What's this?
You can suggest a correction to this tab. Community and Mods will review your correction and vote to approve or reject it.
comments
We did not receive enough feedback on this tab! Please rate:
print report bad tab
1 2 3 4 5
guest
You may want to rate the tab now too:
select rating
Please do not post tabs as comments. Select "correction" instead!