Oops, an error
Loading. Please wait.

17 Crimes Tab

version 1
version 1

Whole song

Interactive

by AFI
6,682 views 15 this week
3 commentsread comments
1 2 3 4 5
accurate
x 13
add to favorites
launch autoscroll
font size
0
reset
how to read this tab
guitar tuner
Autoscroll
slow
fast
+/-
esc
set tempo
stop
Help us to improve Ultimate-Guitar.com Take our survey!
×
Author
UH-HiloMOKES 2,519
Standard Tuning

Intro
e-3-3333----------------------5555555-5/7777777-7/8888888-8/10101010101010-10/1212~--|
b--------5/3333-3/11111-00000--------------------------------------------------------|
g------------------------------------------------------------------------------------|
d------------------------------------------------------------------------------------|
a------------------------------------------------------------------------------------|
e------------------------------------------------------------------------------------|

Verse 1
e---------------------------------------------------------------------------------|
b---------------------------------------------------------------------------------|
g-(5~)---10~------(5)------------------------------10~----10-10-10-10-10-10-10-10-|
d--7~----10~-------7--7/9-9---9/10-10---10/12-12---10~----10-10-10-10-10-10-10-10-|
a--7~-----8~-------7--------------------------------8~-----8--8--8--8--8--8--8--8-|
e--5~--------------5--------------------------------------------------------------|

Chorus (Can either strike chord once and let it ring or play it in rhythm of song)
e-------------------------------------------------------------|
b-------------------------------------------------------------|
g-5~----------------------------------------------------------|  2x
d-5~------5~------3~------------3~------5~------7~------------|
a-3~------5~------3~------------3~------5~------7~------------|
e---------3~------1~------------1~------3~------5~------------|

Verse 2
e------------------------------------------------------------------------|
b------------------------------------------------------------------------|
g-(5~)----(5)--10-9-7---10~------------7-(5)-----------------------------|
d--7~------7----------9-10~----10-9-10----7--7/9-9---9/10-10---10/12-12--|
a--7~------7-------------8~---------------7------------------------------|
e--5~------5------------------------------5------------------------------|

e-5555555-5/7777777-7/8888888-8/10101010101010-|
b----------------------------------------------|
g----------------------------------------------|
d----------------------------------------------|
a----------------------------------------------|
e----------------------------------------------|

Chorus 2
e-121212121212------------------------------------------------------------------------------|
b--------------121212121212-131313131313131313131313-121212121212---------------------------|
g-----------------------------------------------------------------141414141414141414141414--|
d-------------------------------------------------------------------------------------------|
a-------------------------------------------------------------------------------------------|
e-------------------------------------------------------------------------------------------|

e----------------------------------------------------------------------------------------|
b-------13--121212121212-131313131313131313131313-121212121212---------------------------|
g----12--------------------------------------------------------141414141414141414141414--|
d-14-------------------------------------------------------------------------------------|
a----------------------------------------------------------------------------------------|
e----------------------------------------------------------------------------------------|

Solo
e-3-3333----------------------3-3333----------------------|
b--------5/3333-3/11111-00000--------5/3333-3/11111-00000-|
g---------------------------------------------------------|
d---------------------------------------------------------|
a---------------------------------------------------------|
e---------------------------------------------------------|

e-55555-5/77777-7/88888-8/1010101010-10/12121212121212121212121212-131313131313-12121212-|
b----------------------------------------------------------------------------------------|
g----------------------------------------------------------------------------------------|
d----------------------------------------------------------------------------------------|
a----------------------------------------------------------------------------------------|
e----------------------------------------------------------------------------------------|

Bridge
e------------------------------------------|
b-----------------------------------7------|
g----------------9---------4----------7~---|
d----11------------10~-------5~------------| 2x
a-------12~---10------------------5--------|
e-12---------------------3-----------------|

Final Chorus'
Same as chorus 2 except for this little fill after the end of first final chorus
e-----------------------------|
b-----------------------------|
g-----------------------------|
d-7777-9999-10101010-12121212-|
a-----------------------------|
e-----------------------------|
Suggest correction new What's this?
You can suggest a correction to this tab. Community and Mods will review your correction and vote to approve or reject it.
comments
print report bad tab
3 comments total.
0 reply
Audible Warfare 1,144 wrote on October 21 2013, 10:53 pm

Tuning?

+1 reply
Punkman95 105 wrote on December 18 2013, 09:47 pm

It says standard at the top of the page.

+1 reply
rafanardi 65 wrote on January 29 2014, 09:16 am

Why only 4 stars? This one deserves a big ol` 5

guest
You may want to rate the tab now too:
select rating
Please do not post tabs as comments. Select "correction" instead!