Oops, an error
Loading. Please wait.

37Mm Bass Tab

version 2
version 2

Whole song

Interactive

by AFI
1,283 views 1 this week
no commentswrite comment
1 2 3 4 5
2 more votes to show rating
add to favorites
launch autoscroll
font size
0
reset
guitar tuner
Autoscroll
slow
fast
+/-
esc
set tempo
stop
Help us to improve Ultimate-Guitar.com Take our survey!
×
Author
AFI
37mm
DECEMBERUNDERGROUND (2005)


Intro/Verse
-----------------|-----------------|-----------------|-----------------|
-----------------|-----------------|-----------------|-----------------|
-----------------|-----------------|-2-2-2-222-2-2-2-|-2-2-2-222-2-2-4-|
-4-4-4-444-4-4-4-|-4-4-4-444-4-4-4-|-----------------|-----------------|

-----------------|-----------------|-----------------|-----------------|
-----------------|-----------------|-----------------|-----------------|
-----------------|-----------------|-----------------|-------------2-4-|
-4-4-4-444-4-4-4-|-4-4-4-444-4-4-4-|-2-2-2-222-2-2-2-|-2-2-2-222-4-----|


-----------------|-----------------|-----------------|-----------------|
-----------------|-----------------|-----------------|-----------------|
-----------------|-----------------|-2-2-2-222-2-2-2-|-2-2-2-222-2-2-4-|
-4-4-4-444-4-4-4-|-4-4-4-444-4-4-4-|-----------------|-----------------|

-----------------|------------------|-----------------|-----------------|
-----------------|------------------|-4-4-4-444-4-4-4-|-4-4-4-444-2-1-1-|
-----------------|------------------|-----------------|-----------------|
-2-2-2-222-2-2-2-|-2-2-2-222-2-2-2--|-----------------|-----------------|


Chorus
-----------------|-----------------|-----------------|-----------------|
-----------------|-----------------|-----------------|-----------------|
-2-2-2-222-2-2-2-|-2-2-2-222-2-2-2-|-4-4-4-444-4-4-4-|-4-4-4-444-4-4-4-|
-----------------|-----------------|-----------------|-----------------|

-----------------|-----------------|-----------------|-----------------|
-----------------|-----------------|-4-4-4-444-4-4-4-|-4-4-4-444-2-1-1-|
-2-2-2-222-2-2-2-|-2-2-2-222-2-2-2-|-----------------|-----------------|
-----------------|-----------------|-----------------|-----------------|x1

Bridge
-9-8---------------------------------------------------
-----9-8---------2--9-9/11----13-----------------------
---------------------------11----11------14------16----
---------7-6-2(2)-------------------1212----1414-------x4

then
-----------------|-----------------|-----------------|-----------------|
-----------------|-----------------|-----------------|-----------------|
-4-4-4-4-4-4-4-4-|-2-2-2-2-2-2-2-2-|-----------------|-----------------|
-----------------|-----------------|-2-2-2-2-2-2-2-2-|-2-2-2-2-2-2-0-0-|


-----------------|-----------------|-----------------|-----------------
-----------------|-----------------|-----------------|-----------------
-4-4-4-4-4-4-4-4-|-2-2-2-2-2-2-2-2-|-----------------|-----------------
-----------------|-----------------|-2-2-2-2-2-2-2-2-|-2-2-2-2-2-2-2-2-


Chorus
-----------------|-----------------|-----------------|-----------------|
-----------------|-----------------|-----------------|-----------------|
-2-2-2-222-2-2-2-|-2-2-2-222-2-2-2-|-4-4-4-444-4-4-4-|-4-4-4-444-4-4-4-|
-----------------|-----------------|-----------------|-----------------|

-----------------|-----------------|-----------------|-----------------|
-----------------|-----------------|-4-4-4-444-4-4-4-|-4-4-4-444-2-1-1-|
-2-2-2-222-2-2-2-|-2-2-2-222-2-2-2-|-----------------|-----------------|
-----------------|-----------------|-----------------|-----------------|x2

|------|
|------|
|--4---|
|------|
Suggest correction
Give kudos to tab author, rate the tab!
1 2 3 4 5
comments
print report bad tab
guest
You may want to rate the tab now too:
select rating
Wanna post a correction for this tab? Suggest correction