Oops, an error
Loading. Please wait.

3 12 Tab

by AFI
1,238 views 3 this week
no commentswrite comment
1 2 3 4 5
excellent!
x 3
add to favorites
launch autoscroll
font size
0
reset
how to read this tab
guitar tuner
Autoscroll
slow
fast
+/-
esc
set tempo
stop
Help us to improve Ultimate-Guitar.com Take our survey!
×
Band: A.F.I.
Song: 3 1/2

Tabbed by: Anthony Calderone

Intro:
----------|--------------|
----------|--------------|
----------|---99999999---|
-2-22--x7-|-2-99999999---|
-2-22-----|-2-77777777---|
-0-00-----|-0------------|

Pre-Verse:
------------------------------------------------------|
------------------------------------------------------|
------------------------------------------------------|
-10-10-999-77-999-77-99-77-99-777-999-77-99-77-99-----|
-10-10-999-77-999-77-99-77-99-777-999-77-99-77-99-----|
-8--8--777-55-777-55-77-55-77-555-777-55-77-55-77-----|

Verse:
------------------------------------------------------------|
------------------------------------------------------------|
-222222-444444-555555-777777---------------333333-666666----|
-222222-444444-555555-777777-777777-999999-333333-666666----|
-000000-222222-333333-555555-777777-999999-111111-444444----|
-----------------------------555555-777777------------------|

----------------------------------------------------------------|
----------------------------------------------------------------|
-222222-444444-555555-777777---------------222222-444444--------|
-222222-444444-555555-555555-777777-555555-222222-444444--------|
-000000-222222-333333-555555-777777-555555-000000-222222--------|
-----------------------------555555-333333----------------------|

Chorus:
----------------------------------------------------------------------------|
----------------------------------------------------------------------------|
----------------------------------------------------------------------------|
1010-999-77-999-77-99-77-99-xxxx(9999)1010-999-77-999-77-99-77-99-xxxx(7777-|
1010-999-77-999-77-99-77-99-xxxx(9999)1010-999-77-999-77-99-77-99-xxxx(7777-|
8-8--777-55-777-55-77-55-77-xxxx(7777)8-8--777-55-777-55-77-55-77-xxxx(5555-|

----------------------------------------------------------------------|
----------------------------------------------------------------------|
----------------------------------------------------------------------|
1010-999-77-999-77-99-77-99-xxxx(9999)1010-999-77-999-77-99-77-99-----|
1010-999-77-999-77-99-77-99-xxxx(9999)1010-999-77-999-77-99-77-99-----|
8-8--777-55-777-55-77-55-77-xxxx(7777)8-8--777-55-777-55-77-55-77-----|

Verse:
------------------------------------------------------------|
------------------------------------------------------------|
-222222-444444-555555-777777---------------333333-666666----|
-222222-444444-555555-777777-777777-999999-333333-666666----|
-000000-222222-333333-555555-777777-999999-111111-444444----|
-----------------------------555555-777777------------------|

----------------------------------------------------------------|
----------------------------------------------------------------|
-222222-444444-555555-777777---------------222222-444444--------|
-222222-444444-555555-555555-777777-555555-222222-444444--------|
-000000-222222-333333-555555-777777-555555-000000-222222--------|
-----------------------------555555-333333----------------------|

Chorus:
----------------------------------------------------------------------------|
----------------------------------------------------------------------------|
----------------------------------------------------------------------------|
1010-999-77-999-77-99-77-99-xxxx(9999)1010-999-77-999-77-99-77-99-xxxx(7777-|
1010-999-77-999-77-99-77-99-xxxx(9999)1010-999-77-999-77-99-77-99-xxxx(7777-|
8-8--777-55-777-55-77-55-77-xxxx(7777)8-8--777-55-777-55-77-55-77-xxxx(5555-|

----------------------------------------------------------------------|
----------------------------------------------------------------------|
----------------------------------------------------------------------|
1010-999-77-999-77-99-77-99-xxxx(9999)1010-999-77-999-77-99-77-99-----|
1010-999-77-999-77-99-77-99-xxxx(9999)1010-999-77-999-77-99-77-99-----|
8-8--777-55-777-55-77-55-77-xxxx(7777)8-8--777-55-777-55-77-55-77-----|

Bridge:
---------|-------------|
---------|-------------|
---------|-------------|
-2-22--x2|-2-----------|
-2-22----|-2-222222----|
-0-00----|-0-222222----|

Outro:
------------------------------------------------------|
------------------------------------------------------|
------------------------------------------------------|
-10-10-999-77-999-77-99-77-99-777-999-77-99-77-99--x4-|
-10-10-999-77-999-77-99-77-99-777-999-77-99-77-99-----|
-8--8--777-55-777-55-77-55-77-555-777-55-77-55-77-----|

------------------------------------------------------------------3----|
------------------------------------------------------------------0----|
------------------------------------------------------------------0----|
1010-999-77-999-77-99-77-99-xxxx(9999)1010-999-77-999-77-99-77-99-0----|
1010-999-77-999-77-99-77-99-xxxx(9999)1010-999-77-999-77-99-77-99------|
8-8--777-55-777-55-77-55-77-xxxx(7777)8-8--777-55-777-55-77-55-77------|
Suggest correction
Give kudos to tab author, rate the tab!
1 2 3 4 5
comments
print report bad tab
guest
You may want to rate the tab now too:
select rating
Wanna post a correction for this tab? Suggest correction