Oops, an error
Loading. Please wait.

6 To 8 Tab

version 1
version 1

Interactive

by AFI
2,995 views 9 this week
8 commentsread comments
1 2 3 4 5
worth learning
x 18
add to favorites
launch autoscroll
font size
0
reset
how to read this tab
guitar tuner
Autoscroll
slow
fast
+/-
esc
set tempo
stop
Help us to improve Ultimate-Guitar.com Take our survey!
×
its really easy...play along with the song first though so u know how many times
to repeat the verses....if i made any mistakes e-mail me @
blink_chick04@hotmail.com...this is my 1st tab. it sounds right to me

e|--------------------------------------------------------------------------|
B|--------------------------------------------------------------------------|
G|--------------------------------------------------------------------------|
D|-----0-0----0-0-----0-0-0-0-0-0-------------------------------------------|
A|-----9-9----7-7-----5-5-5-5-5-5---repeat a few times----------------------|
E|--------------------------------------------------------------------------|

e|--------------------------------------------------------------------------|
B|--------------------------------------------------------------------------|
G|------22--4-22------------22--4-22--------2-2-2-2-------------------------|
D|------------------------------------------0-0-0-0- repeat a few times-----|
A|---0---------------3------------------------------------------------------|
E|--------------------------------------------------------------------------|

e|--------------------------------------------------------------------------|
B|--------------------------------------------------------------------------|
G|--------------------------------------------------------------------------|
D|--------5-5------7-7------------------------------------------------------|
A|---7-7--3-3-5-5--5-5-------about 4 times----------------------------------|
E|---5-5------3-3-----------------------------------------------------------|

e|--------------------------------------------------------------------------|
B|--------------------------------------------------------------------------|
G|--------------------------------------------------------------------------|
D|--5-5-5-5-----------------------------------------------------------------|
A|--3-3-3-3---5-5-----2<-<-<-10 times---------------------------------------|
E|------------3-3-----0-----------------------------------------------------|


thats pretty much it....hope its right :)

tabbed by: angela
Suggest correction new What's this?
You can suggest a correction to this tab. Community and Mods will review your correction and vote to approve or reject it.
comments
print report bad tab
8 comments total. Showing first comments.
0 reply
afi_morningstar 11 wrote on February 15 2003, 12:00 am

e|--------------------------------------------------------------------------|
B|--------------------------------------------------------------------------|
G|--------------------------------------------------------------------------|
D|-----9-9----7-7-----5-5-5-5-5-5-------------------------------------------|
A|-----0-0----0-0-----0-0-0-0-0-0---repeat a few times----------------------|
E|--------------------------------------------------------------------------|

0 reply
sXe Sparky sXe 14 wrote on November 17 2003, 12:00 am

e|------------------------------------------------------------------|
B|------------------------------------------------------------------|
G|-----2-2-4p2-2----------2-2-4p2-2-----2-2-2-2---------------------|
D|------2-------------------------------0-0-0-0- repeat a few times-|
A|0---------------3-------------------------------------------------|
E|------------------------------------------------------------------|

Should be played like that... Also, the intro is a tad off, switch where you put your finger(s) on the second and third chords/notes... whatever...

0 reply
pill2comawhite 31 wrote on May 14 2004, 12:00 am

ha, this song isnt hard just playing from Jades version....this is like the poor, lazy, guitarist way

guest
You may want to rate the tab now too:
select rating
Please do not post tabs as comments. Select "correction" instead!